  0
SECTION
  2
HEADER
  9
$ACADVER
  1
AC1009
  9
$DWGCODEPAGE
  3
ansi_1250
  9
$INSBASE
 10
0.0
 20
0.0
 30
0.0
  9
$EXTMIN
 10
-13.45982142857146
 20
0.0
 30
0.0
  9
$EXTMAX
 10
400.0
 20
413.2142857142858
 30
0.0
  9
$LIMMIN
 10
0.0
 20
0.0
  9
$LIMMAX
 10
12.0
 20
9.0
  9
$ORTHOMODE
 70
     0
  9
$REGENMODE
 70
     1
  9
$FILLMODE
 70
     1
  9
$QTEXTMODE
 70
     0
  9
$MIRRTEXT
 70
     1
  9
$DRAGMODE
 70
     2
  9
$LTSCALE
 40
1.0
  9
$OSMODE
 70
    37
  9
$ATTMODE
 70
     1
  9
$TEXTSIZE
 40
0.2
  9
$TRACEWID
 40
0.05
  9
$TEXTSTYLE
  7
STANDARD
  9
$CLAYER
  8
0
  9
$CELTYPE
  6
BYLAYER
  9
$CECOLOR
 62
   256
  9
$DIMSCALE
 40
1.0
  9
$DIMASZ
 40
0.18
  9
$DIMEXO
 40
0.0625
  9
$DIMDLI
 40
0.38
  9
$DIMRND
 40
0.0
  9
$DIMDLE
 40
0.0
  9
$DIMEXE
 40
0.18
  9
$DIMTP
 40
0.0
  9
$DIMTM
 40
0.0
  9
$DIMTXT
 40
0.18
  9
$DIMCEN
 40
0.09
  9
$DIMTSZ
 40
0.0
  9
$DIMTOL
 70
     0
  9
$DIMLIM
 70
     0
  9
$DIMTIH
 70
     1
  9
$DIMTOH
 70
     1
  9
$DIMSE1
 70
     0
  9
$DIMSE2
 70
     0
  9
$DIMTAD
 70
     0
  9
$DIMZIN
 70
     0
  9
$DIMBLK
  1

  9
$DIMASO
 70
     1
  9
$DIMSHO
 70
     1
  9
$DIMPOST
  1

  9
$DIMAPOST
  1

  9
$DIMALT
 70
     0
  9
$DIMALTD
 70
     2
  9
$DIMALTF
 40
25.4
  9
$DIMLFAC
 40
1.0
  9
$DIMTOFL
 70
     0
  9
$DIMTVP
 40
0.0
  9
$DIMTIX
 70
     0
  9
$DIMSOXD
 70
     0
  9
$DIMSAH
 70
     0
  9
$DIMBLK1
  1

  9
$DIMBLK2
  1

  9
$DIMSTYLE
  2
STANDARD
  9
$DIMCLRD
 70
     0
  9
$DIMCLRE
 70
     0
  9
$DIMCLRT
 70
     0
  9
$DIMTFAC
 40
1.0
  9
$DIMGAP
 40
0.09
  9
$LUNITS
 70
     2
  9
$LUPREC
 70
     4
  9
$SKETCHINC
 40
0.1
  9
$FILLETRAD
 40
0.5
  9
$AUNITS
 70
     0
  9
$AUPREC
 70
     0
  9
$MENU
  1
.
  9
$ELEVATION
 40
0.0
  9
$PELEVATION
 40
0.0
  9
$THICKNESS
 40
0.0
  9
$LIMCHECK
 70
     0
  9
$CHAMFERA
 40
0.0
  9
$CHAMFERB
 40
0.0
  9
$SKPOLY
 70
     0
  9
$TDCREATE
 40
2454910.5
  9
$TDUPDATE
 40
2457946.616312569
  9
$TDINDWG
 40
0.0000000116
  9
$TDUSRTIMER
 40
0.0000000116
  9
$USRTIMER
 70
     1
  9
$ANGBASE
 50
0.0
  9
$ANGDIR
 70
     0
  9
$PDMODE
 70
     0
  9
$PDSIZE
 40
0.0
  9
$PLINEWID
 40
0.0
  9
$COORDS
 70
     1
  9
$SPLFRAME
 70
     0
  9
$SPLINETYPE
 70
     6
  9
$SPLINESEGS
 70
     8
  9
$ATTDIA
 70
     0
  9
$ATTREQ
 70
     1
  9
$HANDLING
 70
     1
  9
$HANDSEED
  5
EB5
  9
$SURFTAB1
 70
     6
  9
$SURFTAB2
 70
     6
  9
$SURFTYPE
 70
     6
  9
$SURFU
 70
     6
  9
$SURFV
 70
     6
  9
$UCSNAME
  2

  9
$UCSORG
 10
0.0
 20
0.0
 30
0.0
  9
$UCSXDIR
 10
1.0
 20
0.0
 30
0.0
  9
$UCSYDIR
 10
0.0
 20
1.0
 30
0.0
  9
$PUCSNAME
  2

  9
$PUCSORG
 10
0.0
 20
0.0
 30
0.0
  9
$PUCSXDIR
 10
1.0
 20
0.0
 30
0.0
  9
$PUCSYDIR
 10
0.0
 20
1.0
 30
0.0
  9
$USERI1
 70
     0
  9
$USERI2
 70
     0
  9
$USERI3
 70
     0
  9
$USERI4
 70
     0
  9
$USERI5
 70
     0
  9
$USERR1
 40
0.0
  9
$USERR2
 40
0.0
  9
$USERR3
 40
0.0
  9
$USERR4
 40
0.0
  9
$USERR5
 40
0.0
  9
$WORLDVIEW
 70
     1
  9
$SHADEDGE
 70
     3
  9
$SHADEDIF
 70
    70
  9
$TILEMODE
 70
     1
  9
$MAXACTVP
 70
    64
  9
$PLIMCHECK
 70
     0
  9
$PEXTMIN
 10
1.000000000000000E+20
 20
1.000000000000000E+20
 30
1.000000000000000E+20
  9
$PEXTMAX
 10
-1.000000000000000E+20
 20
-1.000000000000000E+20
 30
-1.000000000000000E+20
  9
$PLIMMIN
 10
0.0
 20
0.0
  9
$PLIMMAX
 10
12.0
 20
9.0
  9
$UNITMODE
 70
     0
  9
$VISRETAIN
 70
     1
  9
$PLINEGEN
 70
     0
  9
$PSLTSCALE
 70
     1
  0
ENDSEC
  0
SECTION
  2
TABLES
  0
TABLE
  2
VPORT
 70
     1
  0
VPORT
  2
*ACTIVE
 70
     0
 10
0.0
 20
0.0
 11
1.0
 21
1.0
 12
10.42990654205607
 22
4.5
 13
0.0
 23
0.0
 14
0.5
 24
0.5
 15
0.5
 25
0.5
 16
0.0
 26
0.0
 36
1.0
 17
0.0
 27
0.0
 37
0.0
 40
9.0
 41
1.972972972850329
 42
50.0
 43
0.0
 44
0.0
 50
0.0
 51
0.0
 71
     0
 72
   100
 73
     1
 74
     3
 75
     0
 76
     0
 77
     0
 78
     0
  0
ENDTAB
  0
TABLE
  2
LTYPE
 70
     2
  0
LTYPE
  2
CONTINUOUS
 70
     0
  3
Solid line
 72
    65
 73
     0
 40
0.0
  0
LTYPE
  2
CONTINUOUS2
 70
     0
  3
Solid Line
 72
    65
 73
     0
 40
0.0
  0
ENDTAB
  0
TABLE
  2
LAYER
 70
     1
  0
LAYER
  2
0
 70
     0
 62
     7
  6
CONTINUOUS
  0
ENDTAB
  0
TABLE
  2
STYLE
 70
     1
  0
STYLE
  2
STANDARD
 70
     0
 40
0.0
 41
1.0
 50
0.0
 71
     0
 42
0.2
  3
txt
  4

  0
ENDTAB
  0
TABLE
  2
VIEW
 70
     0
  0
ENDTAB
  0
TABLE
  2
UCS
 70
     0
  0
ENDTAB
  0
TABLE
  2
APPID
 70
     1
  0
APPID
  2
ACAD
 70
     0
  0
ENDTAB
  0
TABLE
  2
DIMSTYLE
 70
     1
  0
DIMSTYLE
  2
STANDARD
 70
     0
  3

  4

  5

  6

  7

 40
1.0
 41
0.18
 42
0.0625
 43
0.38
 44
0.18
 45
0.0
 46
0.0
 47
0.0
 48
0.0
140
0.18
141
0.09
142
0.0
143
25.4
144
1.0
145
0.0
146
1.0
147
0.09
 71
     0
 72
     0
 73
     1
 74
     1
 75
     0
 76
     0
 77
     0
 78
     0
170
     0
171
     2
172
     0
173
     0
174
     0
175
     0
176
     0
177
     0
178
     0
  0
ENDTAB
  0
ENDSEC
  0
SECTION
  2
BLOCKS
  0
BLOCK
  8
0
  2
$MODEL_SPACE
 70
     0
 10
0.0
 20
0.0
 30
0.0
  3
$MODEL_SPACE
  1

  0
ENDBLK
  5
21
  8
0
  0
BLOCK
 67
     1
  8
0
  2
$PAPER_SPACE
 70
     0
 10
0.0
 20
0.0
 30
0.0
  3
$PAPER_SPACE
  1

  0
ENDBLK
  5
1D
 67
     1
  8
0
  0
ENDSEC
  0
SECTION
  2
ENTITIES
  0
POLYLINE
  5
6F
  8
0
 66
     1
 10
0.0
 20
0.0
 30
0.0
 70
     1
  0
VERTEX
  5
AA
  8
0
 10
361.7265647688646
 20
95.53559491978606
 30
0.0
  0
VERTEX
  5
AB
  8
0
 10
361.7265647688646
 20
94.3791778074866
 30
0.0
  0
VERTEX
  5
AC
  8
0
 10
355.2492920415918
 20
94.3791778074866
 30
0.0
  0
VERTEX
  5
AD
  8
0
 10
355.2530520683298
 20
94.5943348930481
 30
0.0
  0
VERTEX
  5
AE
  8
0
 10
355.277701132501
 20
94.80531417112297
 30
0.0
  0
VERTEX
  5
AF
  8
0
 10
355.3232392341052
 20
95.01211564171119
 30
0.0
  0
VERTEX
  5
B0
  8
0
 10
355.3896663731426
 20
95.2147393048128
 30
0.0
  0
VERTEX
  5
B1
  8
0
 10
355.4561457347737
 20
95.37986714572189
 30
0.0
  0
VERTEX
  5
B2
  8
0
 10
355.5319207180625
 20
95.544368315508
 30
0.0
  0
VERTEX
  5
B3
  8
0
 10
355.616991323009
 20
95.70824281417109
 30
0.0
  0
VERTEX
  5
B4
  8
0
 10
355.7113575496132
 20
95.8714906417112
 30
0.0
  0
VERTEX
  5
B5
  8
0
 10
355.8150193978753
 20
96.03411179812832
 30
0.0
  0
VERTEX
  5
B6
  8
0
 10
355.927976867795
 20
96.19610628342244
 30
0.0
  0
VERTEX
  5
B7
  8
0
 10
356.0502299593726
 20
96.35747409759355
 30
0.0
  0
VERTEX
  5
B8
  8
0
 10
356.1817786726079
 20
96.51821524064168
 30
0.0
  0
VERTEX
  5
B9
  8
0
 10
356.4844608250144
 20
96.85160427807483
 30
0.0
  0
VERTEX
  5
BA
  8
0
 10
356.8477211859769
 20
97.21006016042777
 30
0.0
  0
VERTEX
  5
BB
  8
0
 10
357.2715597554956
 20
97.5935828877005
 30
0.0
  0
VERTEX
  5
BC
  8
0
 10
357.7559765335704
 20
98.00217245989302
 30
0.0
  0
VERTEX
  5
BD
  8
0
 10
358.1391859252817
 20
98.32120028409088
 30
0.0
  0
VERTEX
  5
BE
  8
0
 10
358.4900173089715
 20
98.62320354278071
 30
0.0
  0
VERTEX
  5
BF
  8
0
 10
358.80847068464
 20
98.90818223596254
 30
0.0
  0
VERTEX
  5
C0
  8
0
 10
359.094546052287
 20
99.17613636363633
 30
0.0
  0
VERTEX
  5
C1
  8
0
 10
359.3482434119127
 20
99.42706592580211
 30
0.0
  0
VERTEX
  5
C2
  8
0
 10
359.569562763517
 20
99.66097092245985
 30
0.0
  0
VERTEX
  5
C3
  8
0
 10
359.7585041070999
 20
99.8778513536096
 30
0.0
  0
VERTEX
  5
C4
  8
0
 10
359.9150674426614
 20
100.0777072192513
 30
0.0
  0
VERTEX
  5
C5
  8
0
 10
360.0466683784902
 20
100.2677452372994
 30
0.0
  0
VERTEX
  5
C6
  8
0
 10
360.1607225228753
 20
100.4551721256684
 30
0.0
  0
VERTEX
  5
C7
  8
0
 10
360.2572298758165
 20
100.6399878843582
 30
0.0
  0
VERTEX
  5
C8
  8
0
 10
360.3361904373138
 20
100.8221925133689
 30
0.0
  0
VERTEX
  5
C9
  8
0
 10
360.3976042073672
 20
101.0017860127005
 30
0.0
  0
VERTEX
  5
CA
  8
0
 10
360.4414711859769
 20
101.1787683823529
 30
0.0
  0
VERTEX
  5
CB
  8
0
 10
360.4677913731426
 20
101.3531396223262
 30
0.0
  0
VERTEX
  5
CC
  8
0
 10
360.4765647688646
 20
101.5248997326203
 30
0.0
  0
VERTEX
  5
CD
  8
0
 10
360.4685747120464
 20
101.700210979278
 30
0.0
  0
VERTEX
  5
CE
  8
0
 10
360.4446045415919
 20
101.8685243983957
 30
0.0
  0
VERTEX
  5
CF
  8
0
 10
360.404654257501
 20
102.0298399899732
 30
0.0
  0
VERTEX
  5
D0
  8
0
 10
360.3487238597737
 20
102.1841577540107
 30
0.0
  0
VERTEX
  5
D1
  8
0
 10
360.2768133484101
 20
102.331477690508
 30
0.0
  0
VERTEX
  5
D2
  8
0
 10
360.1889227234101
 20
102.4717997994652
 30
0.0
  0
VERTEX
  5
D3
  8
0
 10
360.0850519847737
 20
102.6051240808823
 30
0.0
  0
VERTEX
  5
D4
  8
0
 10
359.965201132501
 20
102.7314505347593
 30
0.0
  0
VERTEX
  5
D5
  8
0
 10
359.8325035222068
 20
102.8466013536096
 30
0.0
  0
VERTEX
  5
D6
  8
0
 10
359.6900925095063
 20
102.9463987299465
 30
0.0
  0
VERTEX
  5
D7
  8
0
 10
359.5379680943993
 20
103.03084266377
 30
0.0
  0
VERTEX
  5
D8
  8
0
 10
359.376130276886
 20
103.0999331550802
 30
0.0
  0
VERTEX
  5
D9
  8
0
 10
359.2045790569662
 20
103.153670203877
 30
0.0
  0
VERTEX
  5
DA
  8
0
 10
359.0233144346399
 20
103.1920538101604
 30
0.0
  0
VERTEX
  5
DB
  8
0
 10
358.8323364099073
 20
103.2150839739305
 30
0.0
  0
VERTEX
  5
DC
  8
0
 10
358.6316449827683
 20
103.2227606951871
 30
0.0
  0
VERTEX
  5
DD
  8
0
 10
358.4198301431961
 20
103.2146139705882
 30
0.0
  0
VERTEX
  5
DE
  8
0
 10
358.2188776030892
 20
103.1901737967914
 30
0.0
  0
VERTEX
  5
DF
  8
0
 10
358.0287873624475
 20
103.1494401737968
 30
0.0
  0
VERTEX
  5
E0
  8
0
 10
357.849559421271
 20
103.0924131016043
 30
0.0
  0
VERTEX
  5
E1
  8
0
 10
357.6811937795597
 20
103.0190925802139
 30
0.0
  0
VERTEX
  5
E2
  8
0
 10
357.5236904373138
 20
102.9294786096256
 30
0.0
  0
VERTEX
  5
E3
  8
0
 10
357.3770493945331
 20
102.8235711898396
 30
0.0
  0
VERTEX
  5
E4
  8
0
 10
357.2412706512175
 20
102.7013703208556
 30
0.0
  0
VERTEX
  5
E5
  8
0
 10
357.1189653370464
 20
102.5647560160427
 30
0.0
  0
VERTEX
  5
E6
  8
0
 10
357.0127445816988
 20
102.41560828877
 30
0.0
  0
VERTEX
  5
E7
  8
0
 10
356.9226083851747
 20
102.2539271390374
 30
0.0
  0
VERTEX
  5
E8
  8
0
 10
356.8485567474742
 20
102.0797125668449
 30
0.0
  0
VERTEX
  5
E9
  8
0
 10
356.7905896685972
 20
101.8929645721925
 30
0.0
  0
VERTEX
  5
EA
  8
0
 10
356.7487071485438
 20
101.6936831550802
 30
0.0
  0
VERTEX
  5
EB
  8
0
 10
356.7229091873138
 20
101.481868315508
 30
0.0
  0
VERTEX
  5
EC
  8
0
 10
356.7131957849074
 20
101.2575200534759
 30
0.0
  0
VERTEX
  5
ED
  8
0
 10
355.4765647688646
 20
101.3845254010695
 30
0.0
  0
VERTEX
  5
EE
  8
0
 10
355.5192828504154
 20
101.7201600100267
 30
0.0
  0
VERTEX
  5
EF
  8
0
 10
355.583934421271
 20
102.0352189171123
 30
0.0
  0
VERTEX
  5
F0
  8
0
 10
355.6705194814314
 20
102.3297021223262
 30
0.0
  0
VERTEX
  5
F1
  8
0
 10
355.7790380308967
 20
102.6036096256684
 30
0.0
  0
VERTEX
  5
F2
  8
0
 10
355.9094900696667
 20
102.856941427139
 30
0.0
  0
VERTEX
  5
F3
  8
0
 10
356.0618755977416
 20
103.089697526738
 30
0.0
  0
VERTEX
  5
F4
  8
0
 10
356.1462934202683
 20
103.1983596883355
 30
0.0
  0
VERTEX
  5
F5
  8
0
 10
356.2361946151212
 20
103.3018779244652
 30
0.0
  0
VERTEX
  5
F6
  8
0
 10
356.3315791823004
 20
103.400252235127
 30
0.0
  0
VERTEX
  5
F7
  8
0
 10
356.4324471218058
 20
103.4934826203208
 30
0.0
  0
VERTEX
  5
F8
  8
0
 10
356.6485442140518
 20
103.6634671624331
 30
0.0
  0
VERTEX
  5
F9
  8
0
 10
356.8823969881159
 20
103.8107870989304
 30
0.0
  0
VERTEX
  5
FA
  8
0
 10
357.1340054439983
 20
103.9354424298128
 30
0.0
  0
VERTEX
  5
FB
  8
0
 10
357.4033695816988
 20
104.0374331550802
 30
0.0
  0
VERTEX
  5
FC
  8
0
 10
357.6904894012175
 20
104.1167592747326
 30
0.0
  0
VERTEX
  5
FD
  8
0
 10
357.9953649025545
 20
104.17342078877
 30
0.0
  0
VERTEX
  5
FE
  8
0
 10
358.3179960857095
 20
104.2074176971925
 30
0.0
  0
VERTEX
  5
FF
  8
0
 10
358.6583829506828
 20
104.21875
 30
0.0
  0
VERTEX
  5
100
  8
0
 10
359.0017987260838
 20
104.2065299131016
 30
0.0
  0
VERTEX
  5
101
  8
0
 10
359.3268321485438
 20
104.1698696524064
 30
0.0
  0
VERTEX
  5
102
  8
0
 10
359.6334832180625
 20
104.1087692179144
 30
0.0
  0
VERTEX
  5
103
  8
0
 10
359.92175193464
 20
104.0232286096256
 30
0.0
  0
VERTEX
  5
104
  8
0
 10
360.1916382982764
 20
103.9132478275401
 30
0.0
  0
VERTEX
  5
105
  8
0
 10
360.3196880977416
 20
103.8490923713235
 30
0.0
  0
VERTEX
  5
106
  8
0
 10
360.4431423089716
 20
103.7788268716577
 30
0.0
  0
VERTEX
  5
107
  8
0
 10
360.5620009319662
 20
103.7024513285428
 30
0.0
  0
VERTEX
  5
108
  8
0
 10
360.6762639667256
 20
103.6199657419786
 30
0.0
  0
VERTEX
  5
109
  8
0
 10
360.7859314132496
 20
103.5313701119652
 30
0.0
  0
VERTEX
  5
10A
  8
0
 10
360.8910032715384
 20
103.4366644385026
 30
0.0
  0
VERTEX
  5
10B
  8
0
 10
361.0837046418592
 20
103.235294117647
 30
0.0
  0
VERTEX
  5
10C
  8
0
 10
361.2507124961373
 20
103.0222259358289
 30
0.0
  0
VERTEX
  5
10D
  8
0
 10
361.3920268343727
 20
102.7974598930481
 30
0.0
  0
VERTEX
  5
10E
  8
0
 10
361.5076476565652
 20
102.5609959893048
 30
0.0
  0
VERTEX
  5
10F
  8
0
 10
361.5975749627149
 20
102.3128342245989
 30
0.0
  0
VERTEX
  5
110
  8
0
 10
361.6618087528219
 20
102.0529745989305
 30
0.0
  0
VERTEX
  5
111
  8
0
 10
361.700349026886
 20
101.7814171122994
 30
0.0
  0
VERTEX
  5
112
  8
0
 10
361.7131957849074
 20
101.4981617647059
 30
0.0
  0
VERTEX
  5
113
  8
0
 10
361.7094357581694
 20
101.3514162767379
 30
0.0
  0
VERTEX
  5
114
  8
0
 10
361.6981556779555
 20
101.205297459893
 30
0.0
  0
VERTEX
  5
115
  8
0
 10
361.6793555442657
 20
101.0598053141711
 30
0.0
  0
VERTEX
  5
116
  8
0
 10
361.6530353570999
 20
100.9149398395722
 30
0.0
  0
VERTEX
  5
117
  8
0
 10
361.5778348223405
 20
100.6270889037433
 30
0.0
  0
VERTEX
  5
118
  8
0
 10
361.4725540736774
 20
100.3417446524064
 30
0.0
  0
VERTEX
  5
119
  8
0
 10
361.4074324994796
 20
100.1987591911764
 30
0.0
  0
VERTEX
  5
11A
  8
0
 10
361.332388632501
 20
100.0538937165775
 30
0.0
  0
VERTEX
  5
11B
  8
0
 10
361.1525340202015
 20
99.75852272727269
 30
0.0
  0
VERTEX
  5
11C
  8
0
 10
360.9329902367791
 20
99.45563168449195
 30
0.0
  0
VERTEX
  5
11D
  8
0
 10
360.6737572822336
 20
99.14522058823526
 30
0.0
  0
VERTEX
  5
11E
  8
0
 10
360.3485149693993
 20
98.8018048128342
 30
0.0
  0
VERTEX
  5
11F
  8
0
 10
359.9309431111105
 20
98.3998997326203
 30
0.0
  0
VERTEX
  5
120
  8
0
 10
359.4210417073672
 20
97.93950534759355
 30
0.0
  0
VERTEX
  5
121
  8
0
 10
358.8188107581694
 20
97.42062165775398
 30
0.0
  0
VERTEX
  5
122
  8
0
 10
358.3258294747469
 20
97.00263201871655
 30
0.0
  0
VERTEX
  5
123
  8
0
 10
357.9297733250143
 20
96.65775401069516
 30
0.0
  0
VERTEX
  5
124
  8
0
 10
357.6306423089715
 20
96.38598763368981
 30
0.0
  0
VERTEX
  5
125
  8
0
 10
357.4284364266186
 20
96.1873328877005
 30
0.0
  0
VERTEX
  5
126
  8
0
 10
357.2813776030892
 20
96.02502506684488
 30
0.0
  0
VERTEX
  5
127
  8
0
 10
357.147687763517
 20
95.86229946524061
 30
0.0
  0
VERTEX
  5
128
  8
0
 10
357.027366907902
 20
95.69915608288767
 30
0.0
  0
VERTEX
  5
129
  8
0
 10
356.9204150362443
 20
95.53559491978606
 30
0.0
  0
SEQEND
  5
E81
  8
0
  0
POLYLINE
  5
70
  8
0
 66
     1
 10
0.0
 20
0.0
 30
0.0
 70
     1
  0
VERTEX
  5
12A
  8
0
 10
362.8696128972068
 20
96.49816176470586
 30
0.0
  0
VERTEX
  5
12B
  8
0
 10
364.0594524693993
 20
96.68532754010693
 30
0.0
  0
VERTEX
  5
12C
  8
0
 10
364.0901071318325
 20
96.51173963903742
 30
0.0
  0
VERTEX
  5
12D
  8
0
 10
364.1319374292924
 20
96.34859625668446
 30
0.0
  0
VERTEX
  5
12E
  8
0
 10
364.184943361779
 20
96.19589739304811
 30
0.0
  0
VERTEX
  5
12F
  8
0
 10
364.2491249292924
 20
96.05364304812832
 30
0.0
  0
VERTEX
  5
130
  8
0
 10
364.3244821318325
 20
95.92183322192511
 30
0.0
  0
VERTEX
  5
131
  8
0
 10
364.4110149693994
 20
95.80046791443847
 30
0.0
  0
VERTEX
  5
132
  8
0
 10
364.508723441993
 20
95.68954712566843
 30
0.0
  0
VERTEX
  5
133
  8
0
 10
364.6176075496132
 20
95.58907085561493
 30
0.0
  0
VERTEX
  5
134
  8
0
 10
364.7377717374474
 20
95.4997702205882
 30
0.0
  0
VERTEX
  5
135
  8
0
 10
364.8693204506827
 20
95.42237633689835
 30
0.0
  0
VERTEX
  5
136
  8
0
 10
365.0122536893191
 20
95.35688920454541
 30
0.0
  0
VERTEX
  5
137
  8
0
 10
365.1665714533566
 20
95.30330882352938
 30
0.0
  0
VERTEX
  5
138
  8
0
 10
365.3322737427951
 20
95.26163519385022
 30
0.0
  0
VERTEX
  5
139
  8
0
 10
365.5093605576346
 20
95.23186831550798
 30
0.0
  0
VERTEX
  5
13A
  8
0
 10
365.6978318978752
 20
95.21400818850265
 30
0.0
  0
VERTEX
  5
13B
  8
0
 10
365.897687763517
 20
95.20805481283419
 30
0.0
  0
VERTEX
  5
13C
  8
0
 10
366.0982225228752
 20
95.21332929478606
 30
0.0
  0
VERTEX
  5
13D
  8
0
 10
366.2853882982763
 20
95.22915274064167
 30
0.0
  0
VERTEX
  5
13E
  8
0
 10
366.4591850897202
 20
95.25552515040103
 30
0.0
  0
VERTEX
  5
13F
  8
0
 10
366.6196128972068
 20
95.29244652406413
 30
0.0
  0
VERTEX
  5
140
  8
0
 10
366.7666717207362
 20
95.33991686163098
 30
0.0
  0
VERTEX
  5
141
  8
0
 10
366.9003615603084
 20
95.39793616310158
 30
0.0
  0
VERTEX
  5
142
  8
0
 10
367.0206824159234
 20
95.46650442847591
 30
0.0
  0
VERTEX
  5
143
  8
0
 10
367.1276342875811
 20
95.54562165775398
 30
0.0
  0
VERTEX
  5
144
  8
0
 10
367.2216349560304
 20
95.63184115975932
 30
0.0
  0
VERTEX
  5
145
  8
0
 10
367.3031022020197
 20
95.72171624331547
 30
0.0
  0
VERTEX
  5
146
  8
0
 10
367.3720360255491
 20
95.81524690842242
 30
0.0
  0
VERTEX
  5
147
  8
0
 10
367.4284364266186
 20
95.91243315508018
 30
0.0
  0
VERTEX
  5
148
  8
0
 10
367.4723034052282
 20
96.01327498328874
 30
0.0
  0
VERTEX
  5
149
  8
0
 10
367.5036369613779
 20
96.11777239304809
 30
0.0
  0
VERTEX
  5
14A
  8
0
 10
367.5224370950677
 20
96.22592538435825
 30
0.0
  0
VERTEX
  5
14B
  8
0
 10
367.5287038062977
 20
96.33773395721921
 30
0.0
  0
VERTEX
  5
14C
  8
0
 10
367.5231682113779
 20
96.4369568850267
 30
0.0
  0
VERTEX
  5
14D
  8
0
 10
367.5065614266185
 20
96.53074866310158
 30
0.0
  0
VERTEX
  5
14E
  8
0
 10
367.4788834520196
 20
96.61910929144382
 30
0.0
  0
VERTEX
  5
14F
  8
0
 10
367.4401342875811
 20
96.70203877005345
 30
0.0
  0
VERTEX
  5
150
  8
0
 10
367.390313933303
 20
96.77953709893043
 30
0.0
  0
VERTEX
  5
151
  8
0
 10
367.3294223891854
 20
96.85160427807483
 30
0.0
  0
VERTEX
  5
152
  8
0
 10
367.2574596552282
 20
96.9182403074866
 30
0.0
  0
VERTEX
  5
153
  8
0
 10
367.1744257314314
 20
96.97944518716574
 30
0.0
  0
VERTEX
  5
154
  8
0
 10
367.1011052100411
 20
97.02090992647055
 30
0.0
  0
VERTEX
  5
155
  8
0
 10
367.0048067474742
 20
97.06509024064168
 30
0.0
  0
VERTEX
  5
156
  8
0
 10
366.7432759988111
 20
97.16159759358285
 30
0.0
  0
VERTEX
  5
157
  8
0
 10
366.3898334854421
 20
97.26896724598927
 30
0.0
  0
VERTEX
  5
158
  8
0
 10
365.9444792073672
 20
97.38719919786092
 30
0.0
  0
VERTEX
  5
159
  8
0
 10
365.3334748624474
 20
97.54867145721923
 30
0.0
  0
VERTEX
  5
15A
  8
0
 10
364.8239912394528
 20
97.6988636363636
 30
0.0
  0
VERTEX
  5
15B
  8
0
 10
364.4160283383832
 20
97.83777573529409
 30
0.0
  0
VERTEX
  5
15C
  8
0
 10
364.1095861592389
 20
97.96540775401066
 30
0.0
  0
VERTEX
  5
15D
  8
0
 10
363.9856097220731
 20
98.02932820855611
 30
0.0
  0
VERTEX
  5
15E
  8
0
 10
363.8693622287576
 20
98.09909759358284
 30
0.0
  0
VERTEX
  5
15F
  8
0
 10
363.7608436792924
 20
98.17471590909086
 30
0.0
  0
VERTEX
  5
160
  8
0
 10
363.6600540736774
 20
98.25618315508018
 30
0.0
  0
VERTEX
  5
161
  8
0
 10
363.5669934119127
 20
98.34349933155077
 30
0.0
  0
VERTEX
  5
162
  8
0
 10
363.4816616939983
 20
98.43666443850265
 30
0.0
  0
VERTEX
  5
163
  8
0
 10
363.4040589199341
 20
98.5356784759358
 30
0.0
  0
VERTEX
  5
164
  8
0
 10
363.3341850897202
 20
98.64054144385024
 30
0.0
  0
VERTEX
  5
165
  8
0
 10
363.2723013163245
 20
98.74973888703207
 30
0.0
  0
VERTEX
  5
166
  8
0
 10
363.2186687127148
 20
98.86175635026734
 30
0.0
  0
VERTEX
  5
167
  8
0
 10
363.1732872788913
 20
98.97659383355612
 30
0.0
  0
VERTEX
  5
168
  8
0
 10
363.1361570148539
 20
99.09425133689837
 30
0.0
  0
VERTEX
  5
169
  8
0
 10
363.1072779206025
 20
99.21472886029409
 30
0.0
  0
VERTEX
  5
16A
  8
0
 10
363.0866499961373
 20
99.33802640374327
 30
0.0
  0
VERTEX
  5
16B
  8
0
 10
363.0742732414582
 20
99.46414396724596
 30
0.0
  0
VERTEX
  5
16C
  8
0
 10
363.0701476565651
 20
99.59308155080211
 30
0.0
  0
VERTEX
  5
16D
  8
0
 10
363.0837255308966
 20
99.82599431818178
 30
0.0
  0
VERTEX
  5
16E
  8
0
 10
363.1244591538913
 20
100.0501336898396
 30
0.0
  0
VERTEX
  5
16F
  8
0
 10
363.1923485255491
 20
100.2654996657754
 30
0.0
  0
VERTEX
  5
170
  8
0
 10
363.2873936458699
 20
100.4720922459893
 30
0.0
  0
VERTEX
  5
171
  8
0
 10
363.4058344881159
 20
100.6657336229946
 30
0.0
  0
VERTEX
  5
172
  8
0
 10
363.5439110255491
 20
100.8422459893048
 30
0.0
  0
VERTEX
  5
173
  8
0
 10
363.7016232581693
 20
101.0016293449197
 30
0.0
  0
VERTEX
  5
174
  8
0
 10
363.8789711859769
 20
101.1438836898395
 30
0.0
  0
VERTEX
  5
175
  8
0
 10
364.0320878303619
 20
101.2435243983957
 30
0.0
  0
VERTEX
  5
176
  8
0
 10
364.2106891004154
 20
101.3352272727273
 30
0.0
  0
VERTEX
  5
177
  8
0
 10
364.4147749961373
 20
101.4189923128342
 30
0.0
  0
VERTEX
  5
178
  8
0
 10
364.6443455175277
 20
101.4948195187165
 30
0.0
  0
VERTEX
  5
179
  8
0
 10
364.8910450496132
 20
101.5576955213903
 30
0.0
  0
VERTEX
  5
17A
  8
0
 10
365.1465179774207
 20
101.6026069518716
 30
0.0
  0
VERTEX
  5
17B
  8
0
 10
365.4107643009501
 20
101.6295538101604
 30
0.0
  0
VERTEX
  5
17C
  8
0
 10
365.6837840202015
 20
101.6385360962566
 30
0.0
  0
VERTEX
  5
17D
  8
0
 10
365.8894888163245
 20
101.6347760695187
 30
0.0
  0
VERTEX
  5
17E
  8
0
 10
366.0888224560304
 20
101.6234959893048
 30
0.0
  0
VERTEX
  5
17F
  8
0
 10
366.2817849393191
 20
101.6046958556149
 30
0.0
  0
VERTEX
  5
180
  8
0
 10
366.4683762661908
 20
101.5783756684492
 30
0.0
  0
VERTEX
  5
181
  8
0
 10
366.6485964366453
 20
101.5445354278074
 30
0.0
  0
VERTEX
  5
182
  8
0
 10
366.8224454506827
 20
101.5031751336898
 30
0.0
  0
VERTEX
  5
183
  8
0
 10
366.9899233083031
 20
101.4542947860962
 30
0.0
  0
VERTEX
  5
184
  8
0
 10
367.1510300095063
 20
101.3978943850267
 30
0.0
  0
VERTEX
  5
185
  8
0
 10
367.3037810957362
 20
101.3350706049465
 30
0.0
  0
VERTEX
  5
186
  8
0
 10
367.4461921084368
 20
101.2669201203208
 30
0.0
  0
VERTEX
  5
187
  8
0
 10
367.5782630476079
 20
101.1934429311497
 30
0.0
  0
VERTEX
  5
188
  8
0
 10
367.6999939132496
 20
101.1146390374331
 30
0.0
  0
VERTEX
  5
189
  8
0
 10
367.8113847053619
 20
101.0305084391711
 30
0.0
  0
VERTEX
  5
18A
  8
0
 10
367.9124354239448
 20
100.9410511363636
 30
0.0
  0
VERTEX
  5
18B
  8
0
 10
368.0031460689983
 20
100.8462671290107
 30
0.0
  0
VERTEX
  5
18C
  8
0
 10
368.0835166405223
 20
100.7461564171123
 30
0.0
  0
VERTEX
  5
18D
  8
0
 10
368.155792710041
 20
100.6390478776738
 30
0.0
  0
VERTEX
  5
18E
  8
0
 10
368.2222198490784
 20
100.5232703877005
 30
0.0
  0
VERTEX
  5
18F
  8
0
 10
368.2827980576346
 20
100.3988239471925
 30
0.0
  0
VERTEX
  5
190
  8
0
 10
368.3375273357095
 20
100.2657085561497
 30
0.0
  0
VERTEX
  5
191
  8
0
 10
368.3864076833031
 20
100.1239242145722
 30
0.0
  0
VERTEX
  5
192
  8
0
 10
368.4294391004154
 20
99.97347092245985
 30
0.0
  0
VERTEX
  5
193
  8
0
 10
368.4666215870463
 20
99.81434867981281
 30
0.0
  0
VERTEX
  5
194
  8
0
 10
368.4979551431961
 20
99.64655748663098
 30
0.0
  0
VERTEX
  5
195
  8
0
 10
367.3214845549608
 20
99.48612967914436
 30
0.0
  0
VERTEX
  5
196
  8
0
 10
367.296678823009
 20
99.61940173796788
 30
0.0
  0
VERTEX
  5
197
  8
0
 10
367.262368579025
 20
99.74515374331547
 30
0.0
  0
VERTEX
  5
198
  8
0
 10
367.218553823009
 20
99.86338569518713
 30
0.0
  0
VERTEX
  5
199
  8
0
 10
367.1652345549608
 20
99.97409759358285
 30
0.0
  0
VERTEX
  5
19A
  8
0
 10
367.1024107748806
 20
100.0772894385026
 30
0.0
  0
VERTEX
  5
19B
  8
0
 10
367.0300824827683
 20
100.1729612299465
 30
0.0
  0
VERTEX
  5
19C
  8
0
 10
366.9482496786239
 20
100.2611129679144
 30
0.0
  0
VERTEX
  5
19D
  8
0
 10
366.8569123624475
 20
100.3417446524064
 30
0.0
  0
VERTEX
  5
19E
  8
0
 10
366.7558616438646
 20
100.4138118315508
 30
0.0
  0
VERTEX
  5
19F
  8
0
 10
366.644888632501
 20
100.4762700534759
 30
0.0
  0
VERTEX
  5
1A0
  8
0
 10
366.5239933283565
 20
100.5291193181818
 30
0.0
  0
VERTEX
  5
1A1
  8
0
 10
366.3931757314314
 20
100.5723596256684
 30
0.0
  0
VERTEX
  5
1A2
  8
0
 10
366.2524358417255
 20
100.6059909759358
 30
0.0
  0
VERTEX
  5
1A3
  8
0
 10
366.1017736592389
 20
100.6300133689839
 30
0.0
  0
VERTEX
  5
1A4
  8
0
 10
365.9411891839715
 20
100.6444268048128
 30
0.0
  0
VERTEX
  5
1A5
  8
0
 10
365.7706824159234
 20
100.6492312834224
 30
0.0
  0
VERTEX
  5
1A6
  8
0
 10
365.5708787728752
 20
100.6449490307486
 30
0.0
  0
VERTEX
  5
1A7
  8
0
 10
365.3859063464047
 20
100.6321022727272
 30
0.0
  0
VERTEX
  5
1A8
  8
0
 10
365.2157651365116
 20
100.6106910093583
 30
0.0
  0
VERTEX
  5
1A9
  8
0
 10
365.0604551431961
 20
100.5807152406417
 30
0.0
  0
VERTEX
  5
1AA
  8
0
 10
364.9199763664581
 20
100.5421749665775
 30
0.0
  0
VERTEX
  5
1AB
  8
0
 10
364.7943288062977
 20
100.4950701871657
 30
0.0
  0
VERTEX
  5
1AC
  8
0
 10
364.6835124627148
 20
100.4394009024064
 30
0.0
  0
VERTEX
  5
1AD
  8
0
 10
364.5875273357095
 20
100.3751671122994
 30
0.0
  0
VERTEX
  5
1AE
  8
0
 10
364.5044934119127
 20
100.3051888368984
 30
0.0
  0
VERTEX
  5
1AF
  8
0
 10
364.4325306779555
 20
100.2322860962567
 30
0.0
  0
VERTEX
  5
1B0
  8
0
 10
364.3716391338378
 20
100.1564588903743
 30
0.0
  0
VERTEX
  5
1B1
  8
0
 10
364.3218187795598
 20
100.0777072192513
 30
0.0
  0
VERTEX
  5
1B2
  8
0
 10
364.2830696151213
 20
99.99603108288768
 30
0.0
  0
VERTEX
  5
1B3
  8
0
 10
364.2553916405224
 20
99.91143048128339
 30
0.0
  0
VERTEX
  5
1B4
  8
0
 10
364.238784855763
 20
99.82390541443847
 30
0.0
  0
VERTEX
  5
1B5
  8
0
 10
364.2332492608432
 20
99.73345588235291
 30
0.0
  0
VERTEX
  5
1B6
  8
0
 10
364.2424404373137
 20
99.61940173796788
 30
0.0
  0
VERTEX
  5
1B7
  8
0
 10
364.2700139667255
 20
99.51119652406413
 30
0.0
  0
VERTEX
  5
1B8
  8
0
 10
364.3159698490784
 20
99.40884024064168
 30
0.0
  0
VERTEX
  5
1B9
  8
0
 10
364.3803080843726
 20
99.3123328877005
 30
0.0
  0
VERTEX
  5
1BA
  8
0
 10
364.4642820148539
 20
99.2195855614973
 30
0.0
  0
VERTEX
  5
1BB
  8
0
 10
364.5691449827683
 20
99.13519385026734
 30
0.0
  0
VERTEX
  5
1BC
  8
0
 10
364.6948969881159
 20
99.05915775401067
 30
0.0
  0
VERTEX
  5
1BD
  8
0
 10
364.8415380308966
 20
98.99147727272724
 30
0.0
  0
VERTEX
  5
1BE
  8
0
 10
365.1974872287576
 20
98.88118315508018
 30
0.0
  0
VERTEX
  5
1BF
  8
0
 10
365.9043722554956
 20
98.68399064171119
 30
0.0
  0
VERTEX
  5
1C0
  8
0
 10
366.4944875629822
 20
98.52126504010693
 30
0.0
  0
VERTEX
  5
1C1
  8
0
 10
366.9880955175277
 20
98.37399732620318
 30
0.0
  0
VERTEX
  5
1C2
  8
0
 10
367.3851961191319
 20
98.24218749999997
 30
0.0
  0
VERTEX
  5
1C3
  8
0
 10
367.6857893677951
 20
98.1258355614973
 30
0.0
  0
VERTEX
  5
1C4
  8
0
 10
367.8085646853084
 20
98.0684429311497
 30
0.0
  0
VERTEX
  5
1C5
  8
0
 10
367.924551065656
 20
98.00488803475933
 30
0.0
  0
VERTEX
  5
1C6
  8
0
 10
368.0337485088377
 20
97.93517087232618
 30
0.0
  0
VERTEX
  5
1C7
  8
0
 10
368.1361570148538
 20
97.85929144385024
 30
0.0
  0
VERTEX
  5
1C8
  8
0
 10
368.2317765837041
 20
97.77724974933152
 30
0.0
  0
VERTEX
  5
1C9
  8
0
 10
368.3206072153886
 20
97.68904578877003
 30
0.0
  0
VERTEX
  5
1CA
  8
0
 10
368.4026489099073
 20
97.59467956216575
 30
0.0
  0
VERTEX
  5
1CB
  8
0
 10
368.4779016672603
 20
97.49415106951868
 30
0.0
  0
VERTEX
  5
1CC
  8
0
 10
368.5452688129823
 20
97.38740808823526
 30
0.0
  0
VERTEX
  5
1CD
  8
0
 10
368.6036536726079
 20
97.27439839572189
 30
0.0
  0
VERTEX
  5
1CE
  8
0
 10
368.6530562461373
 20
97.15512199197858
 30
0.0
  0
VERTEX
  5
1CF
  8
0
 10
368.6934765335704
 20
97.0295788770053
 30
0.0
  0
VERTEX
  5
1D0
  8
0
 10
368.7249145349074
 20
96.89776905080211
 30
0.0
  0
VERTEX
  5
1D1
  8
0
 10
368.747370250148
 20
96.75969251336895
 30
0.0
  0
VERTEX
  5
1D2
  8
0
 10
368.7608436792923
 20
96.61534926470586
 30
0.0
  0
VERTEX
  5
1D3
  8
0
 10
368.7653348223405
 20
96.4647393048128
 30
0.0
  0
VERTEX
  5
1D4
  8
0
 10
368.7598514500143
 20
96.31543490975932
 30
0.0
  0
VERTEX
  5
1D5
  8
0
 10
368.7434013330357
 20
96.16832386363633
 30
0.0
  0
VERTEX
  5
1D6
  8
0
 10
368.7159844714047
 20
96.02340616644382
 30
0.0
  0
VERTEX
  5
1D7
  8
0
 10
368.6776008651212
 20
95.88068181818178
 30
0.0
  0
VERTEX
  5
1D8
  8
0
 10
368.6282505141854
 20
95.74015081885024
 30
0.0
  0
VERTEX
  5
1D9
  8
0
 10
368.5679334185972
 20
95.60181316844917
 30
0.0
  0
VERTEX
  5
1DA
  8
0
 10
368.4966495783565
 20
95.46566886697858
 30
0.0
  0
VERTEX
  5
1DB
  8
0
 10
368.4143989934635
 20
95.33171791443847
 30
0.0
  0
VERTEX
  5
1DC
  8
0
 10
368.3218083350411
 20
95.20262366310158
 30
0.0
  0
VERTEX
  5
1DD
  8
0
 10
368.2195042742122
 20
95.08104946524061
 30
0.0
  0
VERTEX
  5
1DE
  8
0
 10
368.1074868109769
 20
94.96699532085559
 30
0.0
  0
VERTEX
  5
1DF
  8
0
 10
367.9857559453352
 20
94.8604612299465
 30
0.0
  0
VERTEX
  5
1E0
  8
0
 10
367.8543116772871
 20
94.76144719251333
 30
0.0
  0
VERTEX
  5
1E1
  8
0
 10
367.7131540068325
 20
94.66995320855611
 30
0.0
  0
VERTEX
  5
1E2
  8
0
 10
367.5622829339715
 20
94.58597927807483
 30
0.0
  0
VERTEX
  5
1E3
  8
0
 10
367.4016984587041
 20
94.50952540106948
 30
0.0
  0
VERTEX
  5
1E4
  8
0
 10
367.2335417073672
 20
94.4413749164438
 30
0.0
  0
VERTEX
  5
1E5
  8
0
 10
367.0599538062976
 20
94.38231116310158
 30
0.0
  0
VERTEX
  5
1E6
  8
0
 10
366.8809347554955
 20
94.33233414104275
 30
0.0
  0
VERTEX
  5
1E7
  8
0
 10
366.6964845549608
 20
94.29144385026736
 30
0.0
  0
VERTEX
  5
1E8
  8
0
 10
366.5066032046934
 20
94.2596402907754
 30
0.0
  0
VERTEX
  5
1E9
  8
0
 10
366.3112907046934
 20
94.23692346256682
 30
0.0
  0
VERTEX
  5
1EA
  8
0
 10
366.1105470549608
 20
94.2232933656417
 30
0.0
  0
VERTEX
  5
1EB
  8
0
 10
365.9043722554956
 20
94.21874999999997
 30
0.0
  0
VERTEX
  5
1EC
  8
0
 10
365.5687376465384
 20
94.22773228609623
 30
0.0
  0
VERTEX
  5
1ED
  8
0
 10
365.2536787394528
 20
94.254679144385
 30
0.0
  0
VERTEX
  5
1EE
  8
0
 10
364.9591955342389
 20
94.29959057486627
 30
0.0
  0
VERTEX
  5
1EF
  8
0
 10
364.6852880308966
 20
94.36246657754008
 30
0.0
  0
VERTEX
  5
1F0
  8
0
 10
364.431956229426
 20
94.44330715240638
 30
0.0
  0
VERTEX
  5
1F1
  8
0
 10
364.1992001298271
 20
94.5421122994652
 30
0.0
  0
VERTEX
  5
1F2
  8
0
 10
363.9870197320999
 20
94.65888201871654
 30
0.0
  0
VERTEX
  5
1F3
  8
0
 10
363.7954150362443
 20
94.7936163101604
 30
0.0
  0
VERTEX
  5
1F4
  8
0
 10
363.622297138517
 20
94.94600183823525
 30
0.0
  0
VERTEX
  5
1F5
  8
0
 10
363.4655771351747
 20
95.11572526737964
 30
0.0
  0
VERTEX
  5
1F6
  8
0
 10
363.3252550262175
 20
95.30278659759355
 30
0.0
  0
VERTEX
  5
1F7
  8
0
 10
363.2013308116453
 20
95.50718582887697
 30
0.0
  0
VERTEX
  5
1F8
  8
0
 10
363.0938044914582
 20
95.7289229612299
 30
0.0
  0
VERTEX
  5
1F9
  8
0
 10
363.002676065656
 20
95.96799799465238
 30
0.0
  0
VERTEX
  5
1FA
  8
0
 10
362.9279455342389
 20
96.22441092914436
 30
0.0
  0
SEQEND
  5
E82
  8
0
  0
POLYLINE
  5
71
  8
0
 66
     1
 10
0.0
 20
0.0
 30
0.0
 70
     1
  0
VERTEX
  5
1FB
  8
0
 10
369.5607893677951
 20
94.3791778074866
 30
0.0
  0
VERTEX
  5
1FC
  8
0
 10
369.5607893677951
 20
95.3551136363636
 30
0.0
  0
VERTEX
  5
1FD
  8
0
 10
374.0795059453351
 20
100.5422794117647
 30
0.0
  0
VERTEX
  5
1FE
  8
0
 10
373.3559096886506
 20
100.5121991978609
 30
0.0
  0
VERTEX
  5
1FF
  8
0
 10
372.7225540736774
 20
100.502172459893
 30
0.0
  0
VERTEX
  5
200
  8
0
 10
369.8281690469394
 20
100.502172459893
 30
0.0
  0
VERTEX
  5
201
  8
0
 10
369.8281690469394
 20
101.47810828877
 30
0.0
  0
VERTEX
  5
202
  8
0
 10
375.6303080843726
 20
101.47810828877
 30
0.0
  0
VERTEX
  5
203
  8
0
 10
375.6303080843726
 20
100.6826537433155
 30
0.0
  0
VERTEX
  5
204
  8
0
 10
371.786725196672
 20
96.17730614973259
 30
0.0
  0
VERTEX
  5
205
  8
0
 10
371.0447465870463
 20
95.3551136363636
 30
0.0
  0
VERTEX
  5
206
  8
0
 10
371.8285032715384
 20
95.40023395721923
 30
0.0
  0
VERTEX
  5
207
  8
0
 10
372.5621262661908
 20
95.41527406417109
 30
0.0
  0
VERTEX
  5
208
  8
0
 10
375.8442118276881
 20
95.41527406417109
 30
0.0
  0
VERTEX
  5
209
  8
0
 10
375.8442118276881
 20
94.3791778074866
 30
0.0
  0
SEQEND
  5
E83
  8
0
  0
POLYLINE
  5
72
  8
0
 66
     1
 10
0.0
 20
0.0
 30
0.0
 70
     1
  0
VERTEX
  5
20A
  8
0
 10
379.6677412394528
 20
95.45538101604275
 30
0.0
  0
VERTEX
  5
20B
  8
0
 10
379.8415380308967
 20
94.39254679144382
 30
0.0
  0
VERTEX
  5
20C
  8
0
 10
379.5942118276881
 20
94.34575534759354
 30
0.0
  0
VERTEX
  5
20D
  8
0
 10
379.3602546084368
 20
94.31233288770049
 30
0.0
  0
VERTEX
  5
20E
  8
0
 10
379.1396663731426
 20
94.29227941176467
 30
0.0
  0
VERTEX
  5
20F
  8
0
 10
378.9324471218058
 20
94.28559491978606
 30
0.0
  0
VERTEX
  5
210
  8
0
 10
378.6232893677951
 20
94.29854612299462
 30
0.0
  0
VERTEX
  5
211
  8
0
 10
378.4824972554956
 20
94.31473512700532
 30
0.0
  0
VERTEX
  5
212
  8
0
 10
378.3508963196667
 20
94.33739973262028
 30
0.0
  0
VERTEX
  5
213
  8
0
 10
378.2284865603084
 20
94.36653993983954
 30
0.0
  0
VERTEX
  5
214
  8
0
 10
378.1152679774207
 20
94.40215574866306
 30
0.0
  0
VERTEX
  5
215
  8
0
 10
378.0112405710036
 20
94.44424715909088
 30
0.0
  0
VERTEX
  5
216
  8
0
 10
377.9164043410571
 20
94.49281417112296
 30
0.0
  0
VERTEX
  5
217
  8
0
 10
377.7492920415918
 20
94.60457052139034
 30
0.0
  0
VERTEX
  5
218
  8
0
 10
377.6757626298272
 20
94.66655873997324
 30
0.0
  0
VERTEX
  5
219
  8
0
 10
377.6089177100411
 20
94.73262032085557
 30
0.0
  0
VERTEX
  5
21A
  8
0
 10
377.5487572822336
 20
94.80275526403739
 30
0.0
  0
VERTEX
  5
21B
  8
0
 10
377.4952813464047
 20
94.87696356951867
 30
0.0
  0
VERTEX
  5
21C
  8
0
 10
377.4484899025545
 20
94.95524523729944
 30
0.0
  0
VERTEX
  5
21D
  8
0
 10
377.4083829506828
 20
95.03760026737964
 30
0.0
  0
VERTEX
  5
21E
  8
0
 10
377.373916038918
 20
95.13363761697858
 30
0.0
  0
VERTEX
  5
21F
  8
0
 10
377.3440447153886
 20
95.25296624331548
 30
0.0
  0
VERTEX
  5
220
  8
0
 10
377.3187689800945
 20
95.39558614639034
 30
0.0
  0
VERTEX
  5
221
  8
0
 10
377.2980888330356
 20
95.56149732620318
 30
0.0
  0
VERTEX
  5
222
  8
0
 10
377.2705153036239
 20
95.96319351604276
 30
0.0
  0
VERTEX
  5
223
  8
0
 10
377.2613241271533
 20
96.45805481283419
 30
0.0
  0
VERTEX
  5
224
  8
0
 10
377.2613241271533
 20
100.5422794117647
 30
0.0
  0
VERTEX
  5
225
  8
0
 10
376.3789711859769
 20
100.5422794117647
 30
0.0
  0
VERTEX
  5
226
  8
0
 10
376.3789711859769
 20
101.47810828877
 30
0.0
  0
VERTEX
  5
227
  8
0
 10
377.2613241271533
 20
101.47810828877
 30
0.0
  0
VERTEX
  5
228
  8
0
 10
377.2613241271533
 20
103.2361296791444
 30
0.0
  0
VERTEX
  5
229
  8
0
 10
378.4578481913245
 20
103.9580548128342
 30
0.0
  0
VERTEX
  5
22A
  8
0
 10
378.4578481913245
 20
101.47810828877
 30
0.0
  0
VERTEX
  5
22B
  8
0
 10
379.6677412394528
 20
101.47810828877
 30
0.0
  0
VERTEX
  5
22C
  8
0
 10
379.6677412394528
 20
100.5422794117647
 30
0.0
  0
VERTEX
  5
22D
  8
0
 10
378.4578481913245
 20
100.5422794117647
 30
0.0
  0
VERTEX
  5
22E
  8
0
 10
378.4578481913245
 20
96.3912098930481
 30
0.0
  0
VERTEX
  5
22F
  8
0
 10
378.4618171084368
 20
96.15683489304811
 30
0.0
  0
VERTEX
  5
230
  8
0
 10
378.4737238597737
 20
95.96841577540104
 30
0.0
  0
VERTEX
  5
231
  8
0
 10
378.4935684453351
 20
95.82595254010693
 30
0.0
  0
VERTEX
  5
232
  8
0
 10
378.5213508651213
 20
95.72944518716574
 30
0.0
  0
VERTEX
  5
233
  8
0
 10
378.5581155710036
 20
95.659675802139
 30
0.0
  0
VERTEX
  5
234
  8
0
 10
378.6049070148539
 20
95.5974264705882
 30
0.0
  0
VERTEX
  5
235
  8
0
 10
378.6617251966721
 20
95.54269719251333
 30
0.0
  0
VERTEX
  5
236
  8
0
 10
378.7285701164582
 20
95.4954879679144
 30
0.0
  0
VERTEX
  5
237
  8
0
 10
378.8081573490785
 20
95.45746991978606
 30
0.0
  0
VERTEX
  5
238
  8
0
 10
378.9032024693994
 20
95.43031417112296
 30
0.0
  0
VERTEX
  5
239
  8
0
 10
379.0137054774207
 20
95.4140207219251
 30
0.0
  0
VERTEX
  5
23A
  8
0
 10
379.1396663731426
 20
95.40858957219248
 30
0.0
  0
VERTEX
  5
23B
  8
0
 10
379.3719524693993
 20
95.42028743315504
 30
0.0
  0
SEQEND
  5
E84
  8
0
  0
POLYLINE
  5
73
  8
0
 66
     1
 10
0.0
 20
0.0
 30
0.0
 70
     1
  0
VERTEX
  5
23C
  8
0
 10
185.2230502672011
 20
403.3812863822885
 30
0.0
  0
VERTEX
  5
23D
  8
0
 10
185.2230502672011
 20
405.725975761046
 30
0.0
  0
VERTEX
  5
23E
  8
0
 10
180.9745532732131
 20
405.725975761046
 30
0.0
  0
VERTEX
  5
23F
  8
0
 10
180.9745532732131
 20
406.8281801698636
 30
0.0
  0
VERTEX
  5
240
  8
0
 10
185.4434911489646
 20
413.1742055539651
 30
0.0
  0
VERTEX
  5
241
  8
0
 10
186.4254550768203
 20
413.1742055539651
 30
0.0
  0
VERTEX
  5
242
  8
0
 10
186.4254550768203
 20
406.8281801698636
 30
0.0
  0
VERTEX
  5
243
  8
0
 10
187.7481003674015
 20
406.8281801698636
 30
0.0
  0
VERTEX
  5
244
  8
0
 10
187.7481003674015
 20
405.725975761046
 30
0.0
  0
VERTEX
  5
245
  8
0
 10
186.4254550768203
 20
405.725975761046
 30
0.0
  0
VERTEX
  5
246
  8
0
 10
186.4254550768203
 20
403.3812863822885
 30
0.0
  0
SEQEND
  5
E85
  8
0
  0
POLYLINE
  5
74
  8
0
 66
     1
 10
0.0
 20
0.0
 30
0.0
 70
     1
  0
VERTEX
  5
247
  8
0
 10
185.2230502672011
 20
406.8281801698636
 30
0.0
  0
VERTEX
  5
248
  8
0
 10
185.2230502672011
 20
411.2436778318543
 30
0.0
  0
VERTEX
  5
249
  8
0
 10
182.156918002672
 20
406.8281801698636
 30
0.0
  0
SEQEND
  5
E86
  8
0
  0
POLYLINE
  5
75
  8
0
 66
     1
 10
0.0
 20
0.0
 30
0.0
 70
     1
  0
VERTEX
  5
24A
  8
0
 10
188.9772252839012
 20
408.2109457009257
 30
0.0
  0
VERTEX
  5
24B
  8
0
 10
188.9828093687375
 20
408.6345533328563
 30
0.0
  0
VERTEX
  5
24C
  8
0
 10
188.9995616232465
 20
409.036972755034
 30
0.0
  0
VERTEX
  5
24D
  8
0
 10
189.0274820474282
 20
409.4182039674589
 30
0.0
  0
VERTEX
  5
24E
  8
0
 10
189.0665706412826
 20
409.7782469701309
 30
0.0
  0
VERTEX
  5
24F
  8
0
 10
189.1168274048096
 20
410.11710176305
 30
0.0
  0
VERTEX
  5
250
  8
0
 10
189.1782523380094
 20
410.4347683462163
 30
0.0
  0
VERTEX
  5
251
  8
0
 10
189.2508454408818
 20
410.7312467196298
 30
0.0
  0
VERTEX
  5
252
  8
0
 10
189.3346067134269
 20
411.0065368832905
 30
0.0
  0
VERTEX
  5
253
  8
0
 10
189.4293795925184
 20
411.2636657243059
 30
0.0
  0
VERTEX
  5
254
  8
0
 10
189.5350075150301
 20
411.5056601297835
 30
0.0
  0
VERTEX
  5
255
  8
0
 10
189.6514904809619
 20
411.7325200997234
 30
0.0
  0
VERTEX
  5
256
  8
0
 10
189.778828490314
 20
411.9442456341255
 30
0.0
  0
VERTEX
  5
257
  8
0
 10
189.9170215430862
 20
412.1408367329899
 30
0.0
  0
VERTEX
  5
258
  8
0
 10
190.0660696392786
 20
412.3222933963165
 30
0.0
  0
VERTEX
  5
259
  8
0
 10
190.2259727788911
 20
412.4886156241055
 30
0.0
  0
VERTEX
  5
25A
  8
0
 10
190.3967309619239
 20
412.6398034163566
 30
0.0
  0
VERTEX
  5
25B
  8
0
 10
190.5786051269205
 20
412.7744477049338
 30
0.0
  0
VERTEX
  5
25C
  8
0
 10
190.7718562124249
 20
412.8911394217006
 30
0.0
  0
VERTEX
  5
25D
  8
0
 10
190.9764842184369
 20
412.9898785666572
 30
0.0
  0
VERTEX
  5
25E
  8
0
 10
191.1924891449566
 20
413.0706651398035
 30
0.0
  0
VERTEX
  5
25F
  8
0
 10
191.4198709919839
 20
413.1334991411395
 30
0.0
  0
VERTEX
  5
260
  8
0
 10
191.658629759519
 20
413.1783805706652
 30
0.0
  0
VERTEX
  5
261
  8
0
 10
191.9087654475618
 20
413.2053094283806
 30
0.0
  0
VERTEX
  5
262
  8
0
 10
192.1702780561122
 20
413.2142857142858
 30
0.0
  0
VERTEX
  5
263
  8
0
 10
192.3643119572478
 20
413.2093278819544
 30
0.0
  0
VERTEX
  5
264
  8
0
 10
192.5522920841684
 20
413.1944543849604
 30
0.0
  0
VERTEX
  5
265
  8
0
 10
192.7342184368738
 20
413.1696652233038
 30
0.0
  0
VERTEX
  5
266
  8
0
 10
192.9100910153641
 20
413.1349603969845
 30
0.0
  0
VERTEX
  5
267
  8
0
 10
193.0799098196393
 20
413.0903399060026
 30
0.0
  0
VERTEX
  5
268
  8
0
 10
193.2436748496994
 20
413.0358037503579
 30
0.0
  0
VERTEX
  5
269
  8
0
 10
193.4013861055444
 20
412.9713519300506
 30
0.0
  0
VERTEX
  5
26A
  8
0
 10
193.5530435871744
 20
412.8969844450807
 30
0.0
  0
VERTEX
  5
26B
  8
0
 10
193.6984385437542
 20
412.8132753602444
 30
0.0
  0
VERTEX
  5
26C
  8
0
 10
193.8373622244489
 20
412.720798740338
 30
0.0
  0
VERTEX
  5
26D
  8
0
 10
193.9698146292585
 20
412.6195545853614
 30
0.0
  0
VERTEX
  5
26E
  8
0
 10
194.095795758183
 20
412.5095428953146
 30
0.0
  0
VERTEX
  5
26F
  8
0
 10
194.2153056112224
 20
412.3907636701977
 30
0.0
  0
VERTEX
  5
270
  8
0
 10
194.3283441883768
 20
412.2632169100106
 30
0.0
  0
VERTEX
  5
271
  8
0
 10
194.434911489646
 20
412.1269026147534
 30
0.0
  0
VERTEX
  5
272
  8
0
 10
194.5350075150301
 20
411.9818207844261
 30
0.0
  0
VERTEX
  5
273
  8
0
 10
194.6292585170341
 20
411.8282845452811
 30
0.0
  0
VERTEX
  5
274
  8
0
 10
194.718290748163
 20
411.666607023571
 30
0.0
  0
VERTEX
  5
275
  8
0
 10
194.8021042084169
 20
411.4967882192958
 30
0.0
  0
VERTEX
  5
276
  8
0
 10
194.8806988977956
 20
411.3188281324555
 30
0.0
  0
VERTEX
  5
277
  8
0
 10
194.9540748162993
 20
411.13272676305
 30
0.0
  0
VERTEX
  5
278
  8
0
 10
195.0222319639279
 20
410.9384841110793
 30
0.0
  0
VERTEX
  5
279
  8
0
 10
195.1428899465598
 20
410.5255749594428
 30
0.0
  0
VERTEX
  5
27A
  8
0
 10
195.1945557782231
 20
410.3016375011929
 30
0.0
  0
VERTEX
  5
27B
  8
0
 10
195.2393328323313
 20
410.0590168432103
 30
0.0
  0
VERTEX
  5
27C
  8
0
 10
195.2772211088844
 20
409.7977129854949
 30
0.0
  0
VERTEX
  5
27D
  8
0
 10
195.3082206078824
 20
409.5177259280466
 30
0.0
  0
VERTEX
  5
27E
  8
0
 10
195.3323313293253
 20
409.2190556708656
 30
0.0
  0
VERTEX
  5
27F
  8
0
 10
195.3495532732131
 20
408.9017022139518
 30
0.0
  0
VERTEX
  5
280
  8
0
 10
195.3633308283233
 20
408.2109457009257
 30
0.0
  0
VERTEX
  5
281
  8
0
 10
195.3577989311957
 20
407.7904693315202
 30
0.0
  0
VERTEX
  5
282
  8
0
 10
195.341203239813
 20
407.3907636701975
 30
0.0
  0
VERTEX
  5
283
  8
0
 10
195.313543754175
 20
407.0118287169577
 30
0.0
  0
VERTEX
  5
284
  8
0
 10
195.2748204742819
 20
406.6536644718008
 30
0.0
  0
VERTEX
  5
285
  8
0
 10
195.2250334001336
 20
406.3162709347267
 30
0.0
  0
VERTEX
  5
286
  8
0
 10
195.1641825317301
 20
405.9996481057353
 30
0.0
  0
VERTEX
  5
287
  8
0
 10
195.0922678690715
 20
405.7037959848268
 30
0.0
  0
VERTEX
  5
288
  8
0
 10
195.0092894121577
 20
405.4287145720012
 30
0.0
  0
VERTEX
  5
289
  8
0
 10
194.9152993486974
 20
405.1715335432771
 30
0.0
  0
VERTEX
  5
28A
  8
0
 10
194.8103498663995
 20
404.9293825746732
 30
0.0
  0
VERTEX
  5
28B
  8
0
 10
194.6944409652639
 20
404.7022616661896
 30
0.0
  0
VERTEX
  5
28C
  8
0
 10
194.5675726452906
 20
404.4901708178262
 30
0.0
  0
VERTEX
  5
28D
  8
0
 10
194.4297449064796
 20
404.2931100295831
 30
0.0
  0
VERTEX
  5
28E
  8
0
 10
194.280957748831
 20
404.1110793014601
 30
0.0
  0
VERTEX
  5
28F
  8
0
 10
194.1212111723447
 20
403.9440786334575
 30
0.0
  0
VERTEX
  5
290
  8
0
 10
193.9505051770207
 20
403.792108025575
 30
0.0
  0
VERTEX
  5
291
  8
0
 10
193.7685266366066
 20
403.6566809213666
 30
0.0
  0
VERTEX
  5
292
  8
0
 10
193.5749624248497
 20
403.5393107643861
 30
0.0
  0
VERTEX
  5
293
  8
0
 10
193.3698125417502
 20
403.4399975546332
 30
0.0
  0
VERTEX
  5
294
  8
0
 10
193.153076987308
 20
403.3587412921081
 30
0.0
  0
VERTEX
  5
295
  8
0
 10
192.9247557615231
 20
403.2955419768109
 30
0.0
  0
VERTEX
  5
296
  8
0
 10
192.6848488643955
 20
403.2503996087414
 30
0.0
  0
VERTEX
  5
297
  8
0
 10
192.4333562959253
 20
403.2233141878997
 30
0.0
  0
VERTEX
  5
298
  8
0
 10
192.1702780561122
 20
403.2142857142858
 30
0.0
  0
VERTEX
  5
299
  8
0
 10
191.9956318887776
 20
403.2182519801509
 30
0.0
  0
VERTEX
  5
29A
  8
0
 10
191.8257348029392
 20
403.2301507777461
 30
0.0
  0
VERTEX
  5
29B
  8
0
 10
191.6605867985972
 20
403.2499821070713
 30
0.0
  0
VERTEX
  5
29C
  8
0
 10
191.5001878757515
 20
403.2777459681268
 30
0.0
  0
VERTEX
  5
29D
  8
0
 10
191.3445380344021
 20
403.3134423609124
 30
0.0
  0
VERTEX
  5
29E
  8
0
 10
191.1936372745491
 20
403.3570712854281
 30
0.0
  0
VERTEX
  5
29F
  8
0
 10
191.0474855961924
 20
403.4086327416739
 30
0.0
  0
VERTEX
  5
2A0
  8
0
 10
190.906082999332
 20
403.4681267296498
 30
0.0
  0
VERTEX
  5
2A1
  8
0
 10
190.7694294839679
 20
403.5355532493559
 30
0.0
  0
VERTEX
  5
2A2
  8
0
 10
190.6375250501002
 20
403.6109123007922
 30
0.0
  0
VERTEX
  5
2A3
  8
0
 10
190.5103696977288
 20
403.6942038839585
 30
0.0
  0
VERTEX
  5
2A4
  8
0
 10
190.3879634268537
 20
403.7854279988549
 30
0.0
  0
VERTEX
  5
2A5
  8
0
 10
190.270306237475
 20
403.8845846454815
 30
0.0
  0
VERTEX
  5
2A6
  8
0
 10
190.1573981295925
 20
403.9916738238383
 30
0.0
  0
VERTEX
  5
2A7
  8
0
 10
190.0492391032064
 20
404.1066955339251
 30
0.0
  0
VERTEX
  5
2A8
  8
0
 10
189.9458291583167
 20
404.229649775742
 30
0.0
  0
VERTEX
  5
2A9
  8
0
 10
189.8285372828992
 20
404.3884569734709
 30
0.0
  0
VERTEX
  5
2AA
  8
0
 10
189.7188126252505
 20
404.5592673442123
 30
0.0
  0
VERTEX
  5
2AB
  8
0
 10
189.6166551853708
 20
404.7420808879664
 30
0.0
  0
VERTEX
  5
2AC
  8
0
 10
189.5220649632599
 20
404.9368976047334
 30
0.0
  0
VERTEX
  5
2AD
  8
0
 10
189.4350419589179
 20
405.1437174945129
 30
0.0
  0
VERTEX
  5
2AE
  8
0
 10
189.3555861723447
 20
405.3625405573052
 30
0.0
  0
VERTEX
  5
2AF
  8
0
 10
189.2836976035405
 20
405.5933667931101
 30
0.0
  0
VERTEX
  5
2B0
  8
0
 10
189.219376252505
 20
405.8361962019278
 30
0.0
  0
VERTEX
  5
2B1
  8
0
 10
189.1626221192385
 20
406.0910287837581
 30
0.0
  0
VERTEX
  5
2B2
  8
0
 10
189.1134352037408
 20
406.3578645386011
 30
0.0
  0
VERTEX
  5
2B3
  8
0
 10
189.0718155060121
 20
406.6367034664568
 30
0.0
  0
VERTEX
  5
2B4
  8
0
 10
189.0377630260521
 20
406.9275455673252
 30
0.0
  0
VERTEX
  5
2B5
  8
0
 10
189.0112777638611
 20
407.2303908412063
 30
0.0
  0
VERTEX
  5
2B6
  8
0
 10
188.9923597194389
 20
407.5452392881001
 30
0.0
  0
VERTEX
  5
2B7
  8
0
 10
188.9810088927856
 20
407.8720909080065
 30
0.0
  0
SEQEND
  5
E87
  8
0
  0
POLYLINE
  5
76
  8
0
 66
     1
 10
0.0
 20
0.0
 30
0.0
 70
     1
  0
VERTEX
  5
2B8
  8
0
 10
190.2130302271209
 20
408.2109457009257
 30
0.0
  0
VERTEX
  5
2B9
  8
0
 10
190.2218499498998
 20
407.6332799527627
 30
0.0
  0
VERTEX
  5
2BA
  8
0
 10
190.2483091182365
 20
407.1060275312531
 30
0.0
  0
VERTEX
  5
2BB
  8
0
 10
190.2924077321309
 20
406.6291884363967
 30
0.0
  0
VERTEX
  5
2BC
  8
0
 10
190.3541457915832
 20
406.2027626681936
 30
0.0
  0
VERTEX
  5
2BD
  8
0
 10
190.4335232965932
 20
405.8267502266439
 30
0.0
  0
VERTEX
  5
2BE
  8
0
 10
190.4798268411824
 20
405.657649003364
 30
0.0
  0
VERTEX
  5
2BF
  8
0
 10
190.530540247161
 20
405.5011511117474
 30
0.0
  0
VERTEX
  5
2C0
  8
0
 10
190.585663514529
 20
405.3572565517942
 30
0.0
  0
VERTEX
  5
2C1
  8
0
 10
190.6451966432866
 20
405.2259653235042
 30
0.0
  0
VERTEX
  5
2C2
  8
0
 10
190.7091396334336
 20
405.1072774268777
 30
0.0
  0
VERTEX
  5
2C3
  8
0
 10
190.7774924849699
 20
405.0011928619144
 30
0.0
  0
VERTEX
  5
2C4
  8
0
 10
190.9227308784235
 20
404.8140999260427
 30
0.0
  0
VERTEX
  5
2C5
  8
0
 10
191.0762149298597
 20
404.6519527149537
 30
0.0
  0
VERTEX
  5
2C6
  8
0
 10
191.2379446392785
 20
404.5147512286478
 30
0.0
  0
VERTEX
  5
2C7
  8
0
 10
191.40792000668
 20
404.4024954671248
 30
0.0
  0
VERTEX
  5
2C8
  8
0
 10
191.5861410320641
 20
404.3151854303846
 30
0.0
  0
VERTEX
  5
2C9
  8
0
 10
191.7726077154309
 20
404.2528211184274
 30
0.0
  0
VERTEX
  5
2CA
  8
0
 10
191.9673200567802
 20
404.2154025312531
 30
0.0
  0
VERTEX
  5
2CB
  8
0
 10
192.1702780561122
 20
404.2029296688616
 30
0.0
  0
VERTEX
  5
2CC
  8
0
 10
192.3732360554442
 20
404.2154547189618
 30
0.0
  0
VERTEX
  5
2CD
  8
0
 10
192.5679483967936
 20
404.2530298692624
 30
0.0
  0
VERTEX
  5
2CE
  8
0
 10
192.7544150801603
 20
404.3156551197634
 30
0.0
  0
VERTEX
  5
2CF
  8
0
 10
192.9326361055444
 20
404.4033304704648
 30
0.0
  0
VERTEX
  5
2D0
  8
0
 10
193.1026114729459
 20
404.5160559213666
 30
0.0
  0
VERTEX
  5
2D1
  8
0
 10
193.2643411823647
 20
404.6538314724688
 30
0.0
  0
VERTEX
  5
2D2
  8
0
 10
193.417825233801
 20
404.8166571237714
 30
0.0
  0
VERTEX
  5
2D3
  8
0
 10
193.5630636272545
 20
405.0045328752744
 30
0.0
  0
VERTEX
  5
2D4
  8
0
 10
193.6314164787909
 20
405.1109958011261
 30
0.0
  0
VERTEX
  5
2D5
  8
0
 10
193.6953594689379
 20
405.229983777078
 30
0.0
  0
VERTEX
  5
2D6
  8
0
 10
193.7548925976954
 20
405.3614968031301
 30
0.0
  0
VERTEX
  5
2D7
  8
0
 10
193.8100158650635
 20
405.5055348792824
 30
0.0
  0
VERTEX
  5
2D8
  8
0
 10
193.8607292710421
 20
405.662098005535
 30
0.0
  0
VERTEX
  5
2D9
  8
0
 10
193.9070328156313
 20
405.8311861818876
 30
0.0
  0
VERTEX
  5
2DA
  8
0
 10
193.9864103206413
 20
406.2069376848937
 30
0.0
  0
VERTEX
  5
2DB
  8
0
 10
194.0481483800936
 20
406.6327893883005
 30
0.0
  0
VERTEX
  5
2DC
  8
0
 10
194.092246993988
 20
407.1087412921081
 30
0.0
  0
VERTEX
  5
2DD
  8
0
 10
194.1187061623247
 20
407.6347933963165
 30
0.0
  0
VERTEX
  5
2DE
  8
0
 10
194.1275258851036
 20
408.2109457009257
 30
0.0
  0
VERTEX
  5
2DF
  8
0
 10
194.1187061623247
 20
408.7901248926424
 30
0.0
  0
VERTEX
  5
2E0
  8
0
 10
194.092246993988
 20
409.3185776314534
 30
0.0
  0
VERTEX
  5
2E1
  8
0
 10
194.0481483800936
 20
409.7963039173586
 30
0.0
  0
VERTEX
  5
2E2
  8
0
 10
193.9864103206413
 20
410.223303750358
 30
0.0
  0
VERTEX
  5
2E3
  8
0
 10
193.9070328156313
 20
410.5995771304515
 30
0.0
  0
VERTEX
  5
2E4
  8
0
 10
193.8607292710421
 20
410.7686914006585
 30
0.0
  0
VERTEX
  5
2E5
  8
0
 10
193.8100158650635
 20
410.9251240576392
 30
0.0
  0
VERTEX
  5
2E6
  8
0
 10
193.7548925976954
 20
411.0688751013934
 30
0.0
  0
VERTEX
  5
2E7
  8
0
 10
193.6953594689379
 20
411.199944531921
 30
0.0
  0
VERTEX
  5
2E8
  8
0
 10
193.6314164787909
 20
411.3183323492223
 30
0.0
  0
VERTEX
  5
2E9
  8
0
 10
193.5630636272545
 20
411.4240385532971
 30
0.0
  0
VERTEX
  5
2EA
  8
0
 10
193.4176164829659
 20
411.6103486735376
 30
0.0
  0
VERTEX
  5
2EB
  8
0
 10
193.2635061790247
 20
411.7718174444127
 30
0.0
  0
VERTEX
  5
2EC
  8
0
 10
193.1007327154309
 20
411.9084448659224
 30
0.0
  0
VERTEX
  5
2ED
  8
0
 10
192.9292960921844
 20
412.0202309380667
 30
0.0
  0
VERTEX
  5
2EE
  8
0
 10
192.7491963092853
 20
412.1071756608455
 30
0.0
  0
VERTEX
  5
2EF
  8
0
 10
192.5604333667335
 20
412.169279034259
 30
0.0
  0
VERTEX
  5
2F0
  8
0
 10
192.3630072645291
 20
412.2065410583072
 30
0.0
  0
VERTEX
  5
2F1
  8
0
 10
192.156918002672
 20
412.2189617329898
 30
0.0
  0
VERTEX
  5
2F2
  8
0
 10
191.9550559452238
 20
412.2080023141522
 30
0.0
  0
VERTEX
  5
2F3
  8
0
 10
191.7636314295257
 20
412.1751240576392
 30
0.0
  0
VERTEX
  5
2F4
  8
0
 10
191.5826444555778
 20
412.1203269634508
 30
0.0
  0
VERTEX
  5
2F5
  8
0
 10
191.4120950233801
 20
412.043611031587
 30
0.0
  0
VERTEX
  5
2F6
  8
0
 10
191.2519831329326
 20
411.9449762620479
 30
0.0
  0
VERTEX
  5
2F7
  8
0
 10
191.1023087842352
 20
411.8244226548335
 30
0.0
  0
VERTEX
  5
2F8
  8
0
 10
190.9630719772879
 20
411.6819502099437
 30
0.0
  0
VERTEX
  5
2F9
  8
0
 10
190.8342727120909
 20
411.5175589273786
 30
0.0
  0
VERTEX
  5
2FA
  8
0
 10
190.7590441299265
 20
411.3997451748736
 30
0.0
  0
VERTEX
  5
2FB
  8
0
 10
190.6886690046761
 20
411.2700848124822
 30
0.0
  0
VERTEX
  5
2FC
  8
0
 10
190.6231473363394
 20
411.1285778402042
 30
0.0
  0
VERTEX
  5
2FD
  8
0
 10
190.5624791249165
 20
410.97522425804
 30
0.0
  0
VERTEX
  5
2FE
  8
0
 10
190.5066643704075
 20
410.8100240659892
 30
0.0
  0
VERTEX
  5
2FF
  8
0
 10
190.4557030728123
 20
410.632977264052
 30
0.0
  0
VERTEX
  5
300
  8
0
 10
190.3683408483634
 20
410.2433438305183
 30
0.0
  0
VERTEX
  5
301
  8
0
 10
190.3003924515698
 20
409.8063239574388
 30
0.0
  0
VERTEX
  5
302
  8
0
 10
190.2518578824315
 20
409.3219176448135
 30
0.0
  0
VERTEX
  5
303
  8
0
 10
190.2227371409486
 20
408.7901248926426
 30
0.0
  0
SEQEND
  5
E88
  8
0
  0
POLYLINE
  5
77
  8
0
 66
     1
 10
0.0
 20
0.0
 30
0.0
 70
     1
  0
VERTEX
  5
304
  8
0
 10
196.5857757181029
 20
408.2109457009257
 30
0.0
  0
VERTEX
  5
305
  8
0
 10
196.5913598029392
 20
408.6345533328563
 30
0.0
  0
VERTEX
  5
306
  8
0
 10
196.6081120574482
 20
409.036972755034
 30
0.0
  0
VERTEX
  5
307
  8
0
 10
196.6360324816299
 20
409.4182039674589
 30
0.0
  0
VERTEX
  5
308
  8
0
 10
196.6751210754843
 20
409.7782469701309
 30
0.0
  0
VERTEX
  5
309
  8
0
 10
196.7253778390113
 20
410.11710176305
 30
0.0
  0
VERTEX
  5
30A
  8
0
 10
196.7868027722111
 20
410.4347683462163
 30
0.0
  0
VERTEX
  5
30B
  8
0
 10
196.8593958750835
 20
410.7312467196298
 30
0.0
  0
VERTEX
  5
30C
  8
0
 10
196.9431571476286
 20
411.0065368832905
 30
0.0
  0
VERTEX
  5
30D
  8
0
 10
197.0379300267201
 20
411.2636657243059
 30
0.0
  0
VERTEX
  5
30E
  8
0
 10
197.1435579492318
 20
411.5056601297835
 30
0.0
  0
VERTEX
  5
30F
  8
0
 10
197.2600409151637
 20
411.7325200997234
 30
0.0
  0
VERTEX
  5
310
  8
0
 10
197.3873789245157
 20
411.9442456341255
 30
0.0
  0
VERTEX
  5
311
  8
0
 10
197.5255719772879
 20
412.1408367329899
 30
0.0
  0
VERTEX
  5
312
  8
0
 10
197.6746200734803
 20
412.3222933963165
 30
0.0
  0
VERTEX
  5
313
  8
0
 10
197.8345232130928
 20
412.4886156241055
 30
0.0
  0
VERTEX
  5
314
  8
0
 10
198.0052813961256
 20
412.6398034163566
 30
0.0
  0
VERTEX
  5
315
  8
0
 10
198.1871555611222
 20
412.7744477049338
 30
0.0
  0
VERTEX
  5
316
  8
0
 10
198.3804066466266
 20
412.8911394217006
 30
0.0
  0
VERTEX
  5
317
  8
0
 10
198.5850346526386
 20
412.9898785666572
 30
0.0
  0
VERTEX
  5
318
  8
0
 10
198.8010395791583
 20
413.0706651398035
 30
0.0
  0
VERTEX
  5
319
  8
0
 10
199.0284214261857
 20
413.1334991411395
 30
0.0
  0
VERTEX
  5
31A
  8
0
 10
199.2671801937208
 20
413.1783805706652
 30
0.0
  0
VERTEX
  5
31B
  8
0
 10
199.5173158817635
 20
413.2053094283806
 30
0.0
  0
VERTEX
  5
31C
  8
0
 10
199.778828490314
 20
413.2142857142858
 30
0.0
  0
VERTEX
  5
31D
  8
0
 10
199.9728623914496
 20
413.2093278819544
 30
0.0
  0
VERTEX
  5
31E
  8
0
 10
200.1608425183701
 20
413.1944543849604
 30
0.0
  0
VERTEX
  5
31F
  8
0
 10
200.3427688710755
 20
413.1696652233038
 30
0.0
  0
VERTEX
  5
320
  8
0
 10
200.5186414495658
 20
413.1349603969845
 30
0.0
  0
VERTEX
  5
321
  8
0
 10
200.688460253841
 20
413.0903399060026
 30
0.0
  0
VERTEX
  5
322
  8
0
 10
200.8522252839011
 20
413.0358037503579
 30
0.0
  0
VERTEX
  5
323
  8
0
 10
201.0099365397461
 20
412.9713519300506
 30
0.0
  0
VERTEX
  5
324
  8
0
 10
201.1615940213761
 20
412.8969844450807
 30
0.0
  0
VERTEX
  5
325
  8
0
 10
201.3069889779559
 20
412.8132753602444
 30
0.0
  0
VERTEX
  5
326
  8
0
 10
201.4459126586507
 20
412.720798740338
 30
0.0
  0
VERTEX
  5
327
  8
0
 10
201.5783650634603
 20
412.6195545853614
 30
0.0
  0
VERTEX
  5
328
  8
0
 10
201.7043461923848
 20
412.5095428953146
 30
0.0
  0
VERTEX
  5
329
  8
0
 10
201.8238560454242
 20
412.3907636701977
 30
0.0
  0
VERTEX
  5
32A
  8
0
 10
201.9368946225785
 20
412.2632169100106
 30
0.0
  0
VERTEX
  5
32B
  8
0
 10
202.0434619238477
 20
412.1269026147534
 30
0.0
  0
VERTEX
  5
32C
  8
0
 10
202.1435579492318
 20
411.9818207844261
 30
0.0
  0
VERTEX
  5
32D
  8
0
 10
202.2378089512358
 20
411.8282845452811
 30
0.0
  0
VERTEX
  5
32E
  8
0
 10
202.3268411823647
 20
411.666607023571
 30
0.0
  0
VERTEX
  5
32F
  8
0
 10
202.4106546426186
 20
411.4967882192958
 30
0.0
  0
VERTEX
  5
330
  8
0
 10
202.4892493319973
 20
411.3188281324555
 30
0.0
  0
VERTEX
  5
331
  8
0
 10
202.562625250501
 20
411.13272676305
 30
0.0
  0
VERTEX
  5
332
  8
0
 10
202.6307823981296
 20
410.9384841110793
 30
0.0
  0
VERTEX
  5
333
  8
0
 10
202.7514403807615
 20
410.5255749594428
 30
0.0
  0
VERTEX
  5
334
  8
0
 10
202.8031062124248
 20
410.3016375011929
 30
0.0
  0
VERTEX
  5
335
  8
0
 10
202.847883266533
 20
410.0590168432103
 30
0.0
  0
VERTEX
  5
336
  8
0
 10
202.8857715430862
 20
409.7977129854949
 30
0.0
  0
VERTEX
  5
337
  8
0
 10
202.9167710420842
 20
409.5177259280466
 30
0.0
  0
VERTEX
  5
338
  8
0
 10
202.940881763527
 20
409.2190556708656
 30
0.0
  0
VERTEX
  5
339
  8
0
 10
202.9581037074148
 20
408.9017022139518
 30
0.0
  0
VERTEX
  5
33A
  8
0
 10
202.971881262525
 20
408.2109457009257
 30
0.0
  0
VERTEX
  5
33B
  8
0
 10
202.9663493653975
 20
407.7904693315202
 30
0.0
  0
VERTEX
  5
33C
  8
0
 10
202.9497536740147
 20
407.3907636701975
 30
0.0
  0
VERTEX
  5
33D
  8
0
 10
202.9220941883767
 20
407.0118287169577
 30
0.0
  0
VERTEX
  5
33E
  8
0
 10
202.8833709084836
 20
406.6536644718008
 30
0.0
  0
VERTEX
  5
33F
  8
0
 10
202.8335838343353
 20
406.3162709347267
 30
0.0
  0
VERTEX
  5
340
  8
0
 10
202.7727329659319
 20
405.9996481057353
 30
0.0
  0
VERTEX
  5
341
  8
0
 10
202.7008183032732
 20
405.7037959848268
 30
0.0
  0
VERTEX
  5
342
  8
0
 10
202.6178398463594
 20
405.4287145720012
 30
0.0
  0
VERTEX
  5
343
  8
0
 10
202.5238497828992
 20
405.1715335432771
 30
0.0
  0
VERTEX
  5
344
  8
0
 10
202.4189003006012
 20
404.9293825746732
 30
0.0
  0
VERTEX
  5
345
  8
0
 10
202.3029913994656
 20
404.7022616661896
 30
0.0
  0
VERTEX
  5
346
  8
0
 10
202.1761230794923
 20
404.4901708178262
 30
0.0
  0
VERTEX
  5
347
  8
0
 10
202.0382953406814
 20
404.2931100295831
 30
0.0
  0
VERTEX
  5
348
  8
0
 10
201.8895081830327
 20
404.1110793014601
 30
0.0
  0
VERTEX
  5
349
  8
0
 10
201.7297616065464
 20
403.9440786334575
 30
0.0
  0
VERTEX
  5
34A
  8
0
 10
201.5590556112224
 20
403.792108025575
 30
0.0
  0
VERTEX
  5
34B
  8
0
 10
201.3770770708083
 20
403.6566809213666
 30
0.0
  0
VERTEX
  5
34C
  8
0
 10
201.1835128590515
 20
403.5393107643861
 30
0.0
  0
VERTEX
  5
34D
  8
0
 10
200.9783629759519
 20
403.4399975546332
 30
0.0
  0
VERTEX
  5
34E
  8
0
 10
200.7616274215097
 20
403.3587412921081
 30
0.0
  0
VERTEX
  5
34F
  8
0
 10
200.5333061957248
 20
403.2955419768109
 30
0.0
  0
VERTEX
  5
350
  8
0
 10
200.2933992985973
 20
403.2503996087414
 30
0.0
  0
VERTEX
  5
351
  8
0
 10
200.041906730127
 20
403.2233141878997
 30
0.0
  0
VERTEX
  5
352
  8
0
 10
199.778828490314
 20
403.2142857142858
 30
0.0
  0
VERTEX
  5
353
  8
0
 10
199.6041823229793
 20
403.2182519801509
 30
0.0
  0
VERTEX
  5
354
  8
0
 10
199.434285237141
 20
403.2301507777461
 30
0.0
  0
VERTEX
  5
355
  8
0
 10
199.2691372327989
 20
403.2499821070713
 30
0.0
  0
VERTEX
  5
356
  8
0
 10
199.1087383099533
 20
403.2777459681268
 30
0.0
  0
VERTEX
  5
357
  8
0
 10
198.9530884686039
 20
403.3134423609124
 30
0.0
  0
VERTEX
  5
358
  8
0
 10
198.8021877087509
 20
403.3570712854281
 30
0.0
  0
VERTEX
  5
359
  8
0
 10
198.6560360303941
 20
403.4086327416739
 30
0.0
  0
VERTEX
  5
35A
  8
0
 10
198.5146334335337
 20
403.4681267296498
 30
0.0
  0
VERTEX
  5
35B
  8
0
 10
198.3779799181697
 20
403.5355532493559
 30
0.0
  0
VERTEX
  5
35C
  8
0
 10
198.2460754843019
 20
403.6109123007922
 30
0.0
  0
VERTEX
  5
35D
  8
0
 10
198.1189201319305
 20
403.6942038839585
 30
0.0
  0
VERTEX
  5
35E
  8
0
 10
197.9965138610555
 20
403.7854279988549
 30
0.0
  0
VERTEX
  5
35F
  8
0
 10
197.8788566716767
 20
403.8845846454815
 30
0.0
  0
VERTEX
  5
360
  8
0
 10
197.7659485637943
 20
403.9916738238383
 30
0.0
  0
VERTEX
  5
361
  8
0
 10
197.6577895374082
 20
404.1066955339251
 30
0.0
  0
VERTEX
  5
362
  8
0
 10
197.5543795925184
 20
404.229649775742
 30
0.0
  0
VERTEX
  5
363
  8
0
 10
197.4370877171009
 20
404.3884569734709
 30
0.0
  0
VERTEX
  5
364
  8
0
 10
197.3273630594523
 20
404.5592673442123
 30
0.0
  0
VERTEX
  5
365
  8
0
 10
197.2252056195725
 20
404.7420808879664
 30
0.0
  0
VERTEX
  5
366
  8
0
 10
197.1306153974616
 20
404.9368976047334
 30
0.0
  0
VERTEX
  5
367
  8
0
 10
197.0435923931196
 20
405.1437174945129
 30
0.0
  0
VERTEX
  5
368
  8
0
 10
196.9641366065464
 20
405.3625405573052
 30
0.0
  0
VERTEX
  5
369
  8
0
 10
196.8922480377422
 20
405.5933667931101
 30
0.0
  0
VERTEX
  5
36A
  8
0
 10
196.8279266867068
 20
405.8361962019278
 30
0.0
  0
VERTEX
  5
36B
  8
0
 10
196.7711725534402
 20
406.0910287837581
 30
0.0
  0
VERTEX
  5
36C
  8
0
 10
196.7219856379426
 20
406.3578645386011
 30
0.0
  0
VERTEX
  5
36D
  8
0
 10
196.6803659402138
 20
406.6367034664568
 30
0.0
  0
VERTEX
  5
36E
  8
0
 10
196.6463134602539
 20
406.9275455673252
 30
0.0
  0
VERTEX
  5
36F
  8
0
 10
196.6198281980628
 20
407.2303908412063
 30
0.0
  0
VERTEX
  5
370
  8
0
 10
196.6009101536406
 20
407.5452392881001
 30
0.0
  0
VERTEX
  5
371
  8
0
 10
196.5895593269873
 20
407.8720909080065
 30
0.0
  0
SEQEND
  5
E89
  8
0
  0
POLYLINE
  5
78
  8
0
 66
     1
 10
0.0
 20
0.0
 30
0.0
 70
     1
  0
VERTEX
  5
372
  8
0
 10
197.8215806613227
 20
408.2109457009257
 30
0.0
  0
VERTEX
  5
373
  8
0
 10
197.8304003841016
 20
407.6332799527627
 30
0.0
  0
VERTEX
  5
374
  8
0
 10
197.8568595524382
 20
407.1060275312531
 30
0.0
  0
VERTEX
  5
375
  8
0
 10
197.9009581663327
 20
406.6291884363967
 30
0.0
  0
VERTEX
  5
376
  8
0
 10
197.9626962257849
 20
406.2027626681936
 30
0.0
  0
VERTEX
  5
377
  8
0
 10
198.0420737307949
 20
405.8267502266439
 30
0.0
  0
VERTEX
  5
378
  8
0
 10
198.0883772753841
 20
405.657649003364
 30
0.0
  0
VERTEX
  5
379
  8
0
 10
198.1390906813627
 20
405.5011511117474
 30
0.0
  0
VERTEX
  5
37A
  8
0
 10
198.1942139487308
 20
405.3572565517942
 30
0.0
  0
VERTEX
  5
37B
  8
0
 10
198.2537470774883
 20
405.2259653235042
 30
0.0
  0
VERTEX
  5
37C
  8
0
 10
198.3176900676353
 20
405.1072774268777
 30
0.0
  0
VERTEX
  5
37D
  8
0
 10
198.3860429191717
 20
405.0011928619144
 30
0.0
  0
VERTEX
  5
37E
  8
0
 10
198.5312813126252
 20
404.8140999260427
 30
0.0
  0
VERTEX
  5
37F
  8
0
 10
198.6847653640614
 20
404.6519527149537
 30
0.0
  0
VERTEX
  5
380
  8
0
 10
198.8464950734803
 20
404.5147512286478
 30
0.0
  0
VERTEX
  5
381
  8
0
 10
199.0164704408817
 20
404.4024954671248
 30
0.0
  0
VERTEX
  5
382
  8
0
 10
199.1946914662659
 20
404.3151854303846
 30
0.0
  0
VERTEX
  5
383
  8
0
 10
199.3811581496326
 20
404.2528211184274
 30
0.0
  0
VERTEX
  5
384
  8
0
 10
199.575870490982
 20
404.2154025312531
 30
0.0
  0
VERTEX
  5
385
  8
0
 10
199.778828490314
 20
404.2029296688616
 30
0.0
  0
VERTEX
  5
386
  8
0
 10
199.981786489646
 20
404.2154547189618
 30
0.0
  0
VERTEX
  5
387
  8
0
 10
200.1764988309953
 20
404.2530298692624
 30
0.0
  0
VERTEX
  5
388
  8
0
 10
200.3629655143621
 20
404.3156551197634
 30
0.0
  0
VERTEX
  5
389
  8
0
 10
200.5411865397461
 20
404.4033304704648
 30
0.0
  0
VERTEX
  5
38A
  8
0
 10
200.7111619071476
 20
404.5160559213666
 30
0.0
  0
VERTEX
  5
38B
  8
0
 10
200.8728916165664
 20
404.6538314724688
 30
0.0
  0
VERTEX
  5
38C
  8
0
 10
201.0263756680027
 20
404.8166571237714
 30
0.0
  0
VERTEX
  5
38D
  8
0
 10
201.1716140614563
 20
405.0045328752744
 30
0.0
  0
VERTEX
  5
38E
  8
0
 10
201.2399669129927
 20
405.1109958011261
 30
0.0
  0
VERTEX
  5
38F
  8
0
 10
201.3039099031396
 20
405.229983777078
 30
0.0
  0
VERTEX
  5
390
  8
0
 10
201.3634430318972
 20
405.3614968031301
 30
0.0
  0
VERTEX
  5
391
  8
0
 10
201.4185662992652
 20
405.5055348792824
 30
0.0
  0
VERTEX
  5
392
  8
0
 10
201.4692797052438
 20
405.662098005535
 30
0.0
  0
VERTEX
  5
393
  8
0
 10
201.515583249833
 20
405.8311861818876
 30
0.0
  0
VERTEX
  5
394
  8
0
 10
201.594960754843
 20
406.2069376848937
 30
0.0
  0
VERTEX
  5
395
  8
0
 10
201.6566988142953
 20
406.6327893883005
 30
0.0
  0
VERTEX
  5
396
  8
0
 10
201.7007974281897
 20
407.1087412921081
 30
0.0
  0
VERTEX
  5
397
  8
0
 10
201.7272565965264
 20
407.6347933963165
 30
0.0
  0
VERTEX
  5
398
  8
0
 10
201.7360763193053
 20
408.2109457009257
 30
0.0
  0
VERTEX
  5
399
  8
0
 10
201.7272565965264
 20
408.7901248926424
 30
0.0
  0
VERTEX
  5
39A
  8
0
 10
201.7007974281897
 20
409.3185776314534
 30
0.0
  0
VERTEX
  5
39B
  8
0
 10
201.6566988142953
 20
409.7963039173586
 30
0.0
  0
VERTEX
  5
39C
  8
0
 10
201.594960754843
 20
410.223303750358
 30
0.0
  0
VERTEX
  5
39D
  8
0
 10
201.515583249833
 20
410.5995771304515
 30
0.0
  0
VERTEX
  5
39E
  8
0
 10
201.4692797052438
 20
410.7686914006585
 30
0.0
  0
VERTEX
  5
39F
  8
0
 10
201.4185662992652
 20
410.9251240576392
 30
0.0
  0
VERTEX
  5
3A0
  8
0
 10
201.3634430318972
 20
411.0688751013934
 30
0.0
  0
VERTEX
  5
3A1
  8
0
 10
201.3039099031396
 20
411.199944531921
 30
0.0
  0
VERTEX
  5
3A2
  8
0
 10
201.2399669129927
 20
411.3183323492223
 30
0.0
  0
VERTEX
  5
3A3
  8
0
 10
201.1716140614563
 20
411.4240385532971
 30
0.0
  0
VERTEX
  5
3A4
  8
0
 10
201.0261669171677
 20
411.6103486735376
 30
0.0
  0
VERTEX
  5
3A5
  8
0
 10
200.8720566132264
 20
411.7718174444127
 30
0.0
  0
VERTEX
  5
3A6
  8
0
 10
200.7092831496326
 20
411.9084448659224
 30
0.0
  0
VERTEX
  5
3A7
  8
0
 10
200.5378465263861
 20
412.0202309380667
 30
0.0
  0
VERTEX
  5
3A8
  8
0
 10
200.357746743487
 20
412.1071756608455
 30
0.0
  0
VERTEX
  5
3A9
  8
0
 10
200.1689838009352
 20
412.169279034259
 30
0.0
  0
VERTEX
  5
3AA
  8
0
 10
199.9715576987308
 20
412.2065410583072
 30
0.0
  0
VERTEX
  5
3AB
  8
0
 10
199.7654684368738
 20
412.2189617329898
 30
0.0
  0
VERTEX
  5
3AC
  8
0
 10
199.5636063794255
 20
412.2080023141522
 30
0.0
  0
VERTEX
  5
3AD
  8
0
 10
199.3721818637275
 20
412.1751240576392
 30
0.0
  0
VERTEX
  5
3AE
  8
0
 10
199.1911948897796
 20
412.1203269634508
 30
0.0
  0
VERTEX
  5
3AF
  8
0
 10
199.0206454575818
 20
412.043611031587
 30
0.0
  0
VERTEX
  5
3B0
  8
0
 10
198.8605335671343
 20
411.9449762620479
 30
0.0
  0
VERTEX
  5
3B1
  8
0
 10
198.7108592184369
 20
411.8244226548335
 30
0.0
  0
VERTEX
  5
3B2
  8
0
 10
198.5716224114897
 20
411.6819502099437
 30
0.0
  0
VERTEX
  5
3B3
  8
0
 10
198.4428231462926
 20
411.5175589273786
 30
0.0
  0
VERTEX
  5
3B4
  8
0
 10
198.3675945641283
 20
411.3997451748736
 30
0.0
  0
VERTEX
  5
3B5
  8
0
 10
198.2972194388778
 20
411.2700848124822
 30
0.0
  0
VERTEX
  5
3B6
  8
0
 10
198.2316977705411
 20
411.1285778402042
 30
0.0
  0
VERTEX
  5
3B7
  8
0
 10
198.1710295591183
 20
410.97522425804
 30
0.0
  0
VERTEX
  5
3B8
  8
0
 10
198.1152148046093
 20
410.8100240659892
 30
0.0
  0
VERTEX
  5
3B9
  8
0
 10
198.0642535070141
 20
410.632977264052
 30
0.0
  0
VERTEX
  5
3BA
  8
0
 10
197.9768912825651
 20
410.2433438305183
 30
0.0
  0
VERTEX
  5
3BB
  8
0
 10
197.9089428857716
 20
409.8063239574388
 30
0.0
  0
VERTEX
  5
3BC
  8
0
 10
197.8604083166333
 20
409.3219176448135
 30
0.0
  0
VERTEX
  5
3BD
  8
0
 10
197.8312875751503
 20
408.7901248926426
 30
0.0
  0
SEQEND
  5
E8A
  8
0
  0
POLYLINE
  5
79
  8
0
 66
     1
 10
0.0
 20
0.0
 30
0.0
 70
     1
  0
VERTEX
  5
3BE
  8
0
 10
208.3292626920508
 20
403.3812863822885
 30
0.0
  0
VERTEX
  5
3BF
  8
0
 10
208.3292626920508
 20
410.475474759042
 30
0.0
  0
VERTEX
  5
3C0
  8
0
 10
209.404746993988
 20
410.475474759042
 30
0.0
  0
VERTEX
  5
3C1
  8
0
 10
209.404746993988
 20
409.480150777746
 30
0.0
  0
VERTEX
  5
3C2
  8
0
 10
209.4916917167669
 20
409.6072278485543
 30
0.0
  0
VERTEX
  5
3C3
  8
0
 10
209.5855252171009
 20
409.727938018895
 30
0.0
  0
VERTEX
  5
3C4
  8
0
 10
209.68624749499
 20
409.8422812887681
 30
0.0
  0
VERTEX
  5
3C5
  8
0
 10
209.7938585504342
 20
409.9502576581736
 30
0.0
  0
VERTEX
  5
3C6
  8
0
 10
209.9083583834336
 20
410.0518671271115
 30
0.0
  0
VERTEX
  5
3C7
  8
0
 10
210.029746993988
 20
410.1471096955818
 30
0.0
  0
VERTEX
  5
3C8
  8
0
 10
210.1580243820976
 20
410.2359853635844
 30
0.0
  0
VERTEX
  5
3C9
  8
0
 10
210.2931905477622
 20
410.3184941311195
 30
0.0
  0
VERTEX
  5
3CA
  8
0
 10
210.434201736807
 20
410.3928616160894
 30
0.0
  0
VERTEX
  5
3CB
  8
0
 10
210.5800141950568
 20
410.4573134363967
 30
0.0
  0
VERTEX
  5
3CC
  8
0
 10
210.7306279225117
 20
410.5118495920413
 30
0.0
  0
VERTEX
  5
3CD
  8
0
 10
210.8860429191717
 20
410.5564700830233
 30
0.0
  0
VERTEX
  5
3CE
  8
0
 10
211.0462591850367
 20
410.5911749093426
 30
0.0
  0
VERTEX
  5
3CF
  8
0
 10
211.2112767201069
 20
410.6159640709992
 30
0.0
  0
VERTEX
  5
3D0
  8
0
 10
211.3810955243821
 20
410.6308375679932
 30
0.0
  0
VERTEX
  5
3D1
  8
0
 10
211.5557155978624
 20
410.6357954003245
 30
0.0
  0
VERTEX
  5
3D2
  8
0
 10
211.7483404308617
 20
410.630681004867
 30
0.0
  0
VERTEX
  5
3D3
  8
0
 10
211.9320933533734
 20
410.6153378184942
 30
0.0
  0
VERTEX
  5
3D4
  8
0
 10
212.1069743653974
 20
410.5897658412063
 30
0.0
  0
VERTEX
  5
3D5
  8
0
 10
212.2729834669339
 20
410.5539650730032
 30
0.0
  0
VERTEX
  5
3D6
  8
0
 10
212.4301206579826
 20
410.507935513885
 30
0.0
  0
VERTEX
  5
3D7
  8
0
 10
212.5783859385437
 20
410.4516771638516
 30
0.0
  0
VERTEX
  5
3D8
  8
0
 10
212.7177793086172
 20
410.385190022903
 30
0.0
  0
VERTEX
  5
3D9
  8
0
 10
212.8483007682031
 20
410.3084740910393
 30
0.0
  0
VERTEX
  5
3DA
  8
0
 10
212.9697415664663
 20
410.2225731224354
 30
0.0
  0
VERTEX
  5
3DB
  8
0
 10
213.0818929525718
 20
410.1285308712664
 30
0.0
  0
VERTEX
  5
3DC
  8
0
 10
213.1847549265197
 20
410.0263473375323
 30
0.0
  0
VERTEX
  5
3DD
  8
0
 10
213.27832748831
 20
409.916022521233
 30
0.0
  0
VERTEX
  5
3DE
  8
0
 10
213.3626106379426
 20
409.7975564223686
 30
0.0
  0
VERTEX
  5
3DF
  8
0
 10
213.4376043754175
 20
409.6709490409391
 30
0.0
  0
VERTEX
  5
3E0
  8
0
 10
213.5033087007348
 20
409.5362003769445
 30
0.0
  0
VERTEX
  5
3E1
  8
0
 10
213.5597236138944
 20
409.3933104303846
 30
0.0
  0
VERTEX
  5
3E2
  8
0
 10
213.6669171676687
 20
409.5437675947133
 30
0.0
  0
VERTEX
  5
3E3
  8
0
 10
213.7780769873079
 20
409.6845178452143
 30
0.0
  0
VERTEX
  5
3E4
  8
0
 10
213.8932030728123
 20
409.8155611818876
 30
0.0
  0
VERTEX
  5
3E5
  8
0
 10
214.0122954241817
 20
409.9368976047333
 30
0.0
  0
VERTEX
  5
3E6
  8
0
 10
214.1353540414162
 20
410.0485271137513
 30
0.0
  0
VERTEX
  5
3E7
  8
0
 10
214.2623789245157
 20
410.1504497089417
 30
0.0
  0
VERTEX
  5
3E8
  8
0
 10
214.3933700734803
 20
410.2426653903045
 30
0.0
  0
VERTEX
  5
3E9
  8
0
 10
214.52832748831
 20
410.3251741578396
 30
0.0
  0
VERTEX
  5
3EA
  8
0
 10
214.6672511690047
 20
410.397976011547
 30
0.0
  0
VERTEX
  5
3EB
  8
0
 10
214.8101411155645
 20
410.4610709514267
 30
0.0
  0
VERTEX
  5
3EC
  8
0
 10
214.9569973279893
 20
410.5144589774789
 30
0.0
  0
VERTEX
  5
3ED
  8
0
 10
215.1078198062792
 20
410.5581400897033
 30
0.0
  0
VERTEX
  5
3EE
  8
0
 10
215.2626085504342
 20
410.5921142881001
 30
0.0
  0
VERTEX
  5
3EF
  8
0
 10
215.4213635604543
 20
410.6163815726692
 30
0.0
  0
VERTEX
  5
3F0
  8
0
 10
215.5840848363394
 20
410.6309419434107
 30
0.0
  0
VERTEX
  5
3F1
  8
0
 10
215.7507723780895
 20
410.6357954003245
 30
0.0
  0
VERTEX
  5
3F2
  8
0
 10
216.0070140280561
 20
410.6266625512932
 30
0.0
  0
VERTEX
  5
3F3
  8
0
 10
216.2480168670675
 20
410.599264004199
 30
0.0
  0
VERTEX
  5
3F4
  8
0
 10
216.4737808951236
 20
410.553599759042
 30
0.0
  0
VERTEX
  5
3F5
  8
0
 10
216.6843061122244
 20
410.4896698158222
 30
0.0
  0
VERTEX
  5
3F6
  8
0
 10
216.8795925183701
 20
410.4074741745396
 30
0.0
  0
VERTEX
  5
3F7
  8
0
 10
217.0596401135604
 20
410.3070128351943
 30
0.0
  0
VERTEX
  5
3F8
  8
0
 10
217.2244488977956
 20
410.1882857977861
 30
0.0
  0
VERTEX
  5
3F9
  8
0
 10
217.3740188710755
 20
410.0512930623152
 30
0.0
  0
VERTEX
  5
3FA
  8
0
 10
217.5070975283901
 20
409.8953040008589
 30
0.0
  0
VERTEX
  5
3FB
  8
0
 10
217.6224323647295
 20
409.7195879854949
 30
0.0
  0
VERTEX
  5
3FC
  8
0
 10
217.7200233800935
 20
409.524145016223
 30
0.0
  0
VERTEX
  5
3FD
  8
0
 10
217.7998705744823
 20
409.3089750930433
 30
0.0
  0
VERTEX
  5
3FE
  8
0
 10
217.8619739478958
 20
409.0740782159558
 30
0.0
  0
VERTEX
  5
3FF
  8
0
 10
217.906333500334
 20
408.8194543849604
 30
0.0
  0
VERTEX
  5
400
  8
0
 10
217.9329492317969
 20
408.5451036000572
 30
0.0
  0
VERTEX
  5
401
  8
0
 10
217.9418211422846
 20
408.2510258612464
 30
0.0
  0
VERTEX
  5
402
  8
0
 10
217.9418211422846
 20
403.3812863822885
 30
0.0
  0
VERTEX
  5
403
  8
0
 10
216.7460963593854
 20
403.3812863822885
 30
0.0
  0
VERTEX
  5
404
  8
0
 10
216.7460963593854
 20
407.85022425804
 30
0.0
  0
VERTEX
  5
405
  8
0
 10
216.7387900801603
 20
408.1856868498904
 30
0.0
  0
VERTEX
  5
406
  8
0
 10
216.716871242485
 20
408.4706317396699
 30
0.0
  0
VERTEX
  5
407
  8
0
 10
216.6803398463594
 20
408.7050589273787
 30
0.0
  0
VERTEX
  5
408
  8
0
 10
216.6291958917836
 20
408.8889684130166
 30
0.0
  0
VERTEX
  5
409
  8
0
 10
216.5588468603875
 20
409.039895266724
 30
0.0
  0
VERTEX
  5
40A
  8
0
 10
216.464700233801
 20
409.1753745586412
 30
0.0
  0
VERTEX
  5
40B
  8
0
 10
216.346756012024
 20
409.2954062887681
 30
0.0
  0
VERTEX
  5
40C
  8
0
 10
216.2050141950568
 20
409.3999904571048
 30
0.0
  0
VERTEX
  5
40D
  8
0
 10
216.0446935537742
 20
409.4847432961161
 30
0.0
  0
VERTEX
  5
40E
  8
0
 10
215.8710128590515
 20
409.545281038267
 30
0.0
  0
VERTEX
  5
40F
  8
0
 10
215.6839721108885
 20
409.5816036835577
 30
0.0
  0
VERTEX
  5
410
  8
0
 10
215.4835713092853
 20
409.5937112319879
 30
0.0
  0
VERTEX
  5
411
  8
0
 10
215.3004968269873
 20
409.585935263384
 30
0.0
  0
VERTEX
  5
412
  8
0
 10
215.1253548764195
 20
409.5626073575723
 30
0.0
  0
VERTEX
  5
413
  8
0
 10
214.9581454575818
 20
409.523727514553
 30
0.0
  0
VERTEX
  5
414
  8
0
 10
214.7988685704743
 20
409.4692957343259
 30
0.0
  0
VERTEX
  5
415
  8
0
 10
214.6475242150969
 20
409.399312016891
 30
0.0
  0
VERTEX
  5
416
  8
0
 10
214.5041123914496
 20
409.3137763622484
 30
0.0
  0
VERTEX
  5
417
  8
0
 10
214.3686330995324
 20
409.212688770398
 30
0.0
  0
VERTEX
  5
418
  8
0
 10
214.2410863393454
 20
409.0960492413399
 30
0.0
  0
VERTEX
  5
419
  8
0
 10
214.1252296259185
 20
408.9622921438116
 30
0.0
  0
VERTEX
  5
41A
  8
0
 10
214.0248204742819
 20
408.8098518465504
 30
0.0
  0
VERTEX
  5
41B
  8
0
 10
213.9398588844356
 20
408.6387283495563
 30
0.0
  0
VERTEX
  5
41C
  8
0
 10
213.8703448563794
 20
408.4489216528295
 30
0.0
  0
VERTEX
  5
41D
  8
0
 10
213.8162783901136
 20
408.24043175637
 30
0.0
  0
VERTEX
  5
41E
  8
0
 10
213.777659485638
 20
408.0132586601776
 30
0.0
  0
VERTEX
  5
41F
  8
0
 10
213.7544881429526
 20
407.7674023642525
 30
0.0
  0
VERTEX
  5
420
  8
0
 10
213.7467643620575
 20
407.5028628685944
 30
0.0
  0
VERTEX
  5
421
  8
0
 10
213.7467643620575
 20
403.3812863822885
 30
0.0
  0
VERTEX
  5
422
  8
0
 10
212.5443595524382
 20
403.3812863822885
 30
0.0
  0
VERTEX
  5
423
  8
0
 10
212.5443595524382
 20
407.9905048191622
 30
0.0
  0
VERTEX
  5
424
  8
0
 10
212.5397670340681
 20
408.1846430957153
 30
0.0
  0
VERTEX
  5
425
  8
0
 10
212.5259894789579
 20
408.3662563221682
 30
0.0
  0
VERTEX
  5
426
  8
0
 10
212.5030268871076
 20
408.5353444985209
 30
0.0
  0
VERTEX
  5
427
  8
0
 10
212.470879258517
 20
408.6919076247734
 30
0.0
  0
VERTEX
  5
428
  8
0
 10
212.4295465931864
 20
408.8359457009257
 30
0.0
  0
VERTEX
  5
429
  8
0
 10
212.3790288911156
 20
408.9674587269778
 30
0.0
  0
VERTEX
  5
42A
  8
0
 10
212.3193261523046
 20
409.0864467029297
 30
0.0
  0
VERTEX
  5
42B
  8
0
 10
212.2504383767535
 20
409.1929096287814
 30
0.0
  0
VERTEX
  5
42C
  8
0
 10
212.1711130594522
 20
409.2868475045329
 30
0.0
  0
VERTEX
  5
42D
  8
0
 10
212.0800976953908
 20
409.3682603301843
 30
0.0
  0
VERTEX
  5
42E
  8
0
 10
211.9773922845691
 20
409.4371481057353
 30
0.0
  0
VERTEX
  5
42F
  8
0
 10
211.8629968269873
 20
409.4935108311863
 30
0.0
  0
VERTEX
  5
430
  8
0
 10
211.7369113226453
 20
409.537348506537
 30
0.0
  0
VERTEX
  5
431
  8
0
 10
211.5991357715431
 20
409.5686611317875
 30
0.0
  0
VERTEX
  5
432
  8
0
 10
211.4496701736807
 20
409.5874487069378
 30
0.0
  0
VERTEX
  5
433
  8
0
 10
211.2885145290581
 20
409.5937112319879
 30
0.0
  0
VERTEX
  5
434
  8
0
 10
211.1627943386774
 20
409.5895362152878
 30
0.0
  0
VERTEX
  5
435
  8
0
 10
211.0394747828991
 20
409.5770111651876
 30
0.0
  0
VERTEX
  5
436
  8
0
 10
210.9185558617234
 20
409.5561360816872
 30
0.0
  0
VERTEX
  5
437
  8
0
 10
210.8000375751503
 20
409.5269109647868
 30
0.0
  0
VERTEX
  5
438
  8
0
 10
210.6839199231797
 20
409.4893358144861
 30
0.0
  0
VERTEX
  5
439
  8
0
 10
210.5702029058116
 20
409.4434106307854
 30
0.0
  0
VERTEX
  5
43A
  8
0
 10
210.4588865230461
 20
409.3891354136846
 30
0.0
  0
VERTEX
  5
43B
  8
0
 10
210.3499707748831
 20
409.3265101631836
 30
0.0
  0
VERTEX
  5
43C
  8
0
 10
210.2459606713427
 20
409.255848005535
 30
0.0
  0
VERTEX
  5
43D
  8
0
 10
210.1493612224449
 20
409.1774620669912
 30
0.0
  0
VERTEX
  5
43E
  8
0
 10
210.0601724281897
 20
409.0913523475523
 30
0.0
  0
VERTEX
  5
43F
  8
0
 10
209.9783942885772
 20
408.9975188472183
 30
0.0
  0
VERTEX
  5
440
  8
0
 10
209.9040268036072
 20
408.8959615659892
 30
0.0
  0
VERTEX
  5
441
  8
0
 10
209.8370699732799
 20
408.7866805038649
 30
0.0
  0
VERTEX
  5
442
  8
0
 10
209.7775237975952
 20
408.6696756608455
 30
0.0
  0
VERTEX
  5
443
  8
0
 10
209.7253882765531
 20
408.5449470369311
 30
0.0
  0
VERTEX
  5
444
  8
0
 10
209.6799849699399
 20
408.4092589941789
 30
0.0
  0
VERTEX
  5
445
  8
0
 10
209.6406354375418
 20
408.2593758946465
 30
0.0
  0
VERTEX
  5
446
  8
0
 10
209.6073396793587
 20
408.0952977383339
 30
0.0
  0
VERTEX
  5
447
  8
0
 10
209.5800976953908
 20
407.917024525241
 30
0.0
  0
VERTEX
  5
448
  8
0
 10
209.5437750501002
 20
407.5178929287146
 30
0.0
  0
VERTEX
  5
449
  8
0
 10
209.53166750167
 20
407.0619811050673
 30
0.0
  0
VERTEX
  5
44A
  8
0
 10
209.53166750167
 20
403.3812863822885
 30
0.0
  0
SEQEND
  5
E8B
  8
0
  0
POLYLINE
  5
7A
  8
0
 66
     1
 10
0.0
 20
0.0
 30
0.0
 70
     1
  0
VERTEX
  5
44B
  8
0
 10
219.7253882765531
 20
403.3812863822885
 30
0.0
  0
VERTEX
  5
44C
  8
0
 10
219.7253882765531
 20
410.475474759042
 30
0.0
  0
VERTEX
  5
44D
  8
0
 10
220.8008725784903
 20
410.475474759042
 30
0.0
  0
VERTEX
  5
44E
  8
0
 10
220.8008725784903
 20
409.480150777746
 30
0.0
  0
VERTEX
  5
44F
  8
0
 10
220.8878173012692
 20
409.6072278485543
 30
0.0
  0
VERTEX
  5
450
  8
0
 10
220.9816508016032
 20
409.727938018895
 30
0.0
  0
VERTEX
  5
451
  8
0
 10
221.0823730794924
 20
409.8422812887681
 30
0.0
  0
VERTEX
  5
452
  8
0
 10
221.1899841349365
 20
409.9502576581736
 30
0.0
  0
VERTEX
  5
453
  8
0
 10
221.3044839679359
 20
410.0518671271115
 30
0.0
  0
VERTEX
  5
454
  8
0
 10
221.4258725784903
 20
410.1471096955818
 30
0.0
  0
VERTEX
  5
455
  8
0
 10
221.5541499665999
 20
410.2359853635844
 30
0.0
  0
VERTEX
  5
456
  8
0
 10
221.6893161322645
 20
410.3184941311195
 30
0.0
  0
VERTEX
  5
457
  8
0
 10
221.8303273213093
 20
410.3928616160894
 30
0.0
  0
VERTEX
  5
458
  8
0
 10
221.9761397795592
 20
410.4573134363967
 30
0.0
  0
VERTEX
  5
459
  8
0
 10
222.126753507014
 20
410.5118495920413
 30
0.0
  0
VERTEX
  5
45A
  8
0
 10
222.282168503674
 20
410.5564700830233
 30
0.0
  0
VERTEX
  5
45B
  8
0
 10
222.4423847695391
 20
410.5911749093426
 30
0.0
  0
VERTEX
  5
45C
  8
0
 10
222.6074023046092
 20
410.6159640709992
 30
0.0
  0
VERTEX
  5
45D
  8
0
 10
222.7772211088844
 20
410.6308375679932
 30
0.0
  0
VERTEX
  5
45E
  8
0
 10
222.9518411823647
 20
410.6357954003245
 30
0.0
  0
VERTEX
  5
45F
  8
0
 10
223.144466015364
 20
410.630681004867
 30
0.0
  0
VERTEX
  5
460
  8
0
 10
223.3282189378757
 20
410.6153378184942
 30
0.0
  0
VERTEX
  5
461
  8
0
 10
223.5030999498998
 20
410.5897658412063
 30
0.0
  0
VERTEX
  5
462
  8
0
 10
223.6691090514362
 20
410.5539650730032
 30
0.0
  0
VERTEX
  5
463
  8
0
 10
223.8262462424849
 20
410.507935513885
 30
0.0
  0
VERTEX
  5
464
  8
0
 10
223.9745115230461
 20
410.4516771638516
 30
0.0
  0
VERTEX
  5
465
  8
0
 10
224.1139048931196
 20
410.385190022903
 30
0.0
  0
VERTEX
  5
466
  8
0
 10
224.2444263527054
 20
410.3084740910393
 30
0.0
  0
VERTEX
  5
467
  8
0
 10
224.3658671509686
 20
410.2225731224354
 30
0.0
  0
VERTEX
  5
468
  8
0
 10
224.4780185370741
 20
410.1285308712664
 30
0.0
  0
VERTEX
  5
469
  8
0
 10
224.580880511022
 20
410.0263473375323
 30
0.0
  0
VERTEX
  5
46A
  8
0
 10
224.6744530728123
 20
409.916022521233
 30
0.0
  0
VERTEX
  5
46B
  8
0
 10
224.7587362224449
 20
409.7975564223686
 30
0.0
  0
VERTEX
  5
46C
  8
0
 10
224.8337299599198
 20
409.6709490409391
 30
0.0
  0
VERTEX
  5
46D
  8
0
 10
224.8994342852371
 20
409.5362003769445
 30
0.0
  0
VERTEX
  5
46E
  8
0
 10
224.9558491983968
 20
409.3933104303846
 30
0.0
  0
VERTEX
  5
46F
  8
0
 10
225.063042752171
 20
409.5437675947133
 30
0.0
  0
VERTEX
  5
470
  8
0
 10
225.1742025718103
 20
409.6845178452143
 30
0.0
  0
VERTEX
  5
471
  8
0
 10
225.2893286573146
 20
409.8155611818876
 30
0.0
  0
VERTEX
  5
472
  8
0
 10
225.408421008684
 20
409.9368976047333
 30
0.0
  0
VERTEX
  5
473
  8
0
 10
225.5314796259185
 20
410.0485271137513
 30
0.0
  0
VERTEX
  5
474
  8
0
 10
225.658504509018
 20
410.1504497089417
 30
0.0
  0
VERTEX
  5
475
  8
0
 10
225.7894956579826
 20
410.2426653903045
 30
0.0
  0
VERTEX
  5
476
  8
0
 10
225.9244530728123
 20
410.3251741578396
 30
0.0
  0
VERTEX
  5
477
  8
0
 10
226.063376753507
 20
410.397976011547
 30
0.0
  0
VERTEX
  5
478
  8
0
 10
226.2062667000668
 20
410.4610709514267
 30
0.0
  0
VERTEX
  5
479
  8
0
 10
226.3531229124916
 20
410.5144589774789
 30
0.0
  0
VERTEX
  5
47A
  8
0
 10
226.5039453907816
 20
410.5581400897033
 30
0.0
  0
VERTEX
  5
47B
  8
0
 10
226.6587341349365
 20
410.5921142881001
 30
0.0
  0
VERTEX
  5
47C
  8
0
 10
226.8174891449566
 20
410.6163815726692
 30
0.0
  0
VERTEX
  5
47D
  8
0
 10
226.9802104208417
 20
410.6309419434107
 30
0.0
  0
VERTEX
  5
47E
  8
0
 10
227.1468979625919
 20
410.6357954003245
 30
0.0
  0
VERTEX
  5
47F
  8
0
 10
227.4031396125584
 20
410.6266625512932
 30
0.0
  0
VERTEX
  5
480
  8
0
 10
227.6441424515698
 20
410.599264004199
 30
0.0
  0
VERTEX
  5
481
  8
0
 10
227.8699064796259
 20
410.553599759042
 30
0.0
  0
VERTEX
  5
482
  8
0
 10
228.0804316967268
 20
410.4896698158222
 30
0.0
  0
VERTEX
  5
483
  8
0
 10
228.2757181028724
 20
410.4074741745396
 30
0.0
  0
VERTEX
  5
484
  8
0
 10
228.4557656980628
 20
410.3070128351943
 30
0.0
  0
VERTEX
  5
485
  8
0
 10
228.6205744822979
 20
410.1882857977861
 30
0.0
  0
VERTEX
  5
486
  8
0
 10
228.7701444555778
 20
410.0512930623152
 30
0.0
  0
VERTEX
  5
487
  8
0
 10
228.9032231128924
 20
409.8953040008589
 30
0.0
  0
VERTEX
  5
488
  8
0
 10
229.0185579492318
 20
409.7195879854949
 30
0.0
  0
VERTEX
  5
489
  8
0
 10
229.1161489645959
 20
409.524145016223
 30
0.0
  0
VERTEX
  5
48A
  8
0
 10
229.1959961589846
 20
409.3089750930433
 30
0.0
  0
VERTEX
  5
48B
  8
0
 10
229.2580995323981
 20
409.0740782159558
 30
0.0
  0
VERTEX
  5
48C
  8
0
 10
229.3024590848363
 20
408.8194543849604
 30
0.0
  0
VERTEX
  5
48D
  8
0
 10
229.3290748162993
 20
408.5451036000572
 30
0.0
  0
VERTEX
  5
48E
  8
0
 10
229.3379467267869
 20
408.2510258612464
 30
0.0
  0
VERTEX
  5
48F
  8
0
 10
229.3379467267869
 20
403.3812863822885
 30
0.0
  0
VERTEX
  5
490
  8
0
 10
228.1422219438878
 20
403.3812863822885
 30
0.0
  0
VERTEX
  5
491
  8
0
 10
228.1422219438878
 20
407.85022425804
 30
0.0
  0
VERTEX
  5
492
  8
0
 10
228.1349156646627
 20
408.1856868498904
 30
0.0
  0
VERTEX
  5
493
  8
0
 10
228.1129968269873
 20
408.4706317396699
 30
0.0
  0
VERTEX
  5
494
  8
0
 10
228.0764654308617
 20
408.7050589273787
 30
0.0
  0
VERTEX
  5
495
  8
0
 10
228.0253214762859
 20
408.8889684130166
 30
0.0
  0
VERTEX
  5
496
  8
0
 10
227.9549724448898
 20
409.039895266724
 30
0.0
  0
VERTEX
  5
497
  8
0
 10
227.8608258183033
 20
409.1753745586412
 30
0.0
  0
VERTEX
  5
498
  8
0
 10
227.7428815965264
 20
409.2954062887681
 30
0.0
  0
VERTEX
  5
499
  8
0
 10
227.6011397795591
 20
409.3999904571048
 30
0.0
  0
VERTEX
  5
49A
  8
0
 10
227.4408191382766
 20
409.4847432961161
 30
0.0
  0
VERTEX
  5
49B
  8
0
 10
227.2671384435538
 20
409.545281038267
 30
0.0
  0
VERTEX
  5
49C
  8
0
 10
227.0800976953908
 20
409.5816036835577
 30
0.0
  0
VERTEX
  5
49D
  8
0
 10
226.8796968937876
 20
409.5937112319879
 30
0.0
  0
VERTEX
  5
49E
  8
0
 10
226.6966224114896
 20
409.585935263384
 30
0.0
  0
VERTEX
  5
49F
  8
0
 10
226.5214804609219
 20
409.5626073575723
 30
0.0
  0
VERTEX
  5
4A0
  8
0
 10
226.3542710420842
 20
409.523727514553
 30
0.0
  0
VERTEX
  5
4A1
  8
0
 10
226.1949941549766
 20
409.4692957343259
 30
0.0
  0
VERTEX
  5
4A2
  8
0
 10
226.0436497995992
 20
409.399312016891
 30
0.0
  0
VERTEX
  5
4A3
  8
0
 10
225.9002379759519
 20
409.3137763622484
 30
0.0
  0
VERTEX
  5
4A4
  8
0
 10
225.7647586840347
 20
409.212688770398
 30
0.0
  0
VERTEX
  5
4A5
  8
0
 10
225.6372119238477
 20
409.0960492413399
 30
0.0
  0
VERTEX
  5
4A6
  8
0
 10
225.5213552104208
 20
408.9622921438116
 30
0.0
  0
VERTEX
  5
4A7
  8
0
 10
225.4209460587842
 20
408.8098518465504
 30
0.0
  0
VERTEX
  5
4A8
  8
0
 10
225.3359844689379
 20
408.6387283495563
 30
0.0
  0
VERTEX
  5
4A9
  8
0
 10
225.2664704408818
 20
408.4489216528295
 30
0.0
  0
VERTEX
  5
4AA
  8
0
 10
225.2124039746159
 20
408.24043175637
 30
0.0
  0
VERTEX
  5
4AB
  8
0
 10
225.1737850701403
 20
408.0132586601776
 30
0.0
  0
VERTEX
  5
4AC
  8
0
 10
225.1506137274549
 20
407.7674023642525
 30
0.0
  0
VERTEX
  5
4AD
  8
0
 10
225.1428899465598
 20
407.5028628685944
 30
0.0
  0
VERTEX
  5
4AE
  8
0
 10
225.1428899465598
 20
403.3812863822885
 30
0.0
  0
VERTEX
  5
4AF
  8
0
 10
223.9404851369405
 20
403.3812863822885
 30
0.0
  0
VERTEX
  5
4B0
  8
0
 10
223.9404851369405
 20
407.9905048191622
 30
0.0
  0
VERTEX
  5
4B1
  8
0
 10
223.9358926185705
 20
408.1846430957153
 30
0.0
  0
VERTEX
  5
4B2
  8
0
 10
223.9221150634602
 20
408.3662563221682
 30
0.0
  0
VERTEX
  5
4B3
  8
0
 10
223.8991524716099
 20
408.5353444985209
 30
0.0
  0
VERTEX
  5
4B4
  8
0
 10
223.8670048430193
 20
408.6919076247734
 30
0.0
  0
VERTEX
  5
4B5
  8
0
 10
223.8256721776887
 20
408.8359457009257
 30
0.0
  0
VERTEX
  5
4B6
  8
0
 10
223.7751544756179
 20
408.9674587269778
 30
0.0
  0
VERTEX
  5
4B7
  8
0
 10
223.715451736807
 20
409.0864467029297
 30
0.0
  0
VERTEX
  5
4B8
  8
0
 10
223.6465639612559
 20
409.1929096287814
 30
0.0
  0
VERTEX
  5
4B9
  8
0
 10
223.5672386439546
 20
409.2868475045329
 30
0.0
  0
VERTEX
  5
4BA
  8
0
 10
223.4762232798931
 20
409.3682603301843
 30
0.0
  0
VERTEX
  5
4BB
  8
0
 10
223.3735178690715
 20
409.4371481057353
 30
0.0
  0
VERTEX
  5
4BC
  8
0
 10
223.2591224114896
 20
409.4935108311863
 30
0.0
  0
VERTEX
  5
4BD
  8
0
 10
223.1330369071476
 20
409.537348506537
 30
0.0
  0
VERTEX
  5
4BE
  8
0
 10
222.9952613560454
 20
409.5686611317875
 30
0.0
  0
VERTEX
  5
4BF
  8
0
 10
222.845795758183
 20
409.5874487069378
 30
0.0
  0
VERTEX
  5
4C0
  8
0
 10
222.6846401135604
 20
409.5937112319879
 30
0.0
  0
VERTEX
  5
4C1
  8
0
 10
222.5589199231797
 20
409.5895362152878
 30
0.0
  0
VERTEX
  5
4C2
  8
0
 10
222.4356003674015
 20
409.5770111651876
 30
0.0
  0
VERTEX
  5
4C3
  8
0
 10
222.3146814462258
 20
409.5561360816872
 30
0.0
  0
VERTEX
  5
4C4
  8
0
 10
222.1961631596526
 20
409.5269109647868
 30
0.0
  0
VERTEX
  5
4C5
  8
0
 10
222.080045507682
 20
409.4893358144861
 30
0.0
  0
VERTEX
  5
4C6
  8
0
 10
221.9663284903139
 20
409.4434106307854
 30
0.0
  0
VERTEX
  5
4C7
  8
0
 10
221.8550121075484
 20
409.3891354136846
 30
0.0
  0
VERTEX
  5
4C8
  8
0
 10
221.7460963593854
 20
409.3265101631836
 30
0.0
  0
VERTEX
  5
4C9
  8
0
 10
221.642086255845
 20
409.255848005535
 30
0.0
  0
VERTEX
  5
4CA
  8
0
 10
221.5454868069472
 20
409.1774620669912
 30
0.0
  0
VERTEX
  5
4CB
  8
0
 10
221.4562980126921
 20
409.0913523475523
 30
0.0
  0
VERTEX
  5
4CC
  8
0
 10
221.3745198730795
 20
408.9975188472183
 30
0.0
  0
VERTEX
  5
4CD
  8
0
 10
221.3001523881095
 20
408.8959615659892
 30
0.0
  0
VERTEX
  5
4CE
  8
0
 10
221.2331955577822
 20
408.7866805038649
 30
0.0
  0
VERTEX
  5
4CF
  8
0
 10
221.1736493820975
 20
408.6696756608455
 30
0.0
  0
VERTEX
  5
4D0
  8
0
 10
221.1215138610554
 20
408.5449470369311
 30
0.0
  0
VERTEX
  5
4D1
  8
0
 10
221.0761105544422
 20
408.4092589941789
 30
0.0
  0
VERTEX
  5
4D2
  8
0
 10
221.0367610220441
 20
408.2593758946465
 30
0.0
  0
VERTEX
  5
4D3
  8
0
 10
221.003465263861
 20
408.0952977383339
 30
0.0
  0
VERTEX
  5
4D4
  8
0
 10
220.9762232798931
 20
407.917024525241
 30
0.0
  0
VERTEX
  5
4D5
  8
0
 10
220.9399006346025
 20
407.5178929287146
 30
0.0
  0
VERTEX
  5
4D6
  8
0
 10
220.9277930861723
 20
407.0619811050673
 30
0.0
  0
VERTEX
  5
4D7
  8
0
 10
220.9277930861723
 20
403.3812863822885
 30
0.0
  0
SEQEND
  5
E8C
  8
0
  0
POLYLINE
  5
7B
  8
0
 66
     1
 10
0.0
 20
0.0
 30
0.0
 70
     1
  0
VERTEX
  5
4D8
  8
0
 10
-3.626822096574132
 20
172.2096574100582
 30
0.0
  0
VERTEX
  5
4D9
  8
0
 10
-5.971511475331646
 20
172.2096574100582
 30
0.0
  0
VERTEX
  5
4DA
  8
0
 10
-5.971511475331646
 20
167.9611604160702
 30
0.0
  0
VERTEX
  5
4DB
  8
0
 10
-7.073715884149282
 20
167.9611604160702
 30
0.0
  0
VERTEX
  5
4DC
  8
0
 10
-13.41974126825082
 20
172.4300982918217
 30
0.0
  0
VERTEX
  5
4DD
  8
0
 10
-13.41974126825082
 20
173.4120622196774
 30
0.0
  0
VERTEX
  5
4DE
  8
0
 10
-7.073715884149282
 20
173.4120622196774
 30
0.0
  0
VERTEX
  5
4DF
  8
0
 10
-7.073715884149282
 20
174.7347075102586
 30
0.0
  0
VERTEX
  5
4E0
  8
0
 10
-5.971511475331646
 20
174.7347075102586
 30
0.0
  0
VERTEX
  5
4E1
  8
0
 10
-5.971511475331646
 20
173.4120622196774
 30
0.0
  0
VERTEX
  5
4E2
  8
0
 10
-3.626822096574132
 20
173.4120622196774
 30
0.0
  0
SEQEND
  5
E8D
  8
0
  0
POLYLINE
  5
7C
  8
0
 66
     1
 10
0.0
 20
0.0
 30
0.0
 70
     1
  0
VERTEX
  5
4E3
  8
0
 10
-7.073715884149282
 20
172.2096574100582
 30
0.0
  0
VERTEX
  5
4E4
  8
0
 10
-11.48921354613993
 20
172.2096574100582
 30
0.0
  0
VERTEX
  5
4E5
  8
0
 10
-7.073715884149282
 20
169.1435251455291
 30
0.0
  0
SEQEND
  5
E8E
  8
0
  0
POLYLINE
  5
7D
  8
0
 66
     1
 10
0.0
 20
0.0
 30
0.0
 70
     1
  0
VERTEX
  5
4E6
  8
0
 10
-8.456481415211403
 20
175.9638324267583
 30
0.0
  0
VERTEX
  5
4E7
  8
0
 10
-8.880089047141931
 20
175.9694165115946
 30
0.0
  0
VERTEX
  5
4E8
  8
0
 10
-9.282508469319621
 20
175.9861687661037
 30
0.0
  0
VERTEX
  5
4E9
  8
0
 10
-9.66373968174447
 20
176.0140891902853
 30
0.0
  0
VERTEX
  5
4EA
  8
0
 10
-10.02378268441648
 20
176.0531777841397
 30
0.0
  0
VERTEX
  5
4EB
  8
0
 10
-10.36263747733565
 20
176.1034345476668
 30
0.0
  0
VERTEX
  5
4EC
  8
0
 10
-10.68030406050199
 20
176.1648594808665
 30
0.0
  0
VERTEX
  5
4ED
  8
0
 10
-10.97678243391548
 20
176.2374525837389
 30
0.0
  0
VERTEX
  5
4EE
  8
0
 10
-11.25207259757613
 20
176.321213856284
 30
0.0
  0
VERTEX
  5
4EF
  8
0
 10
-11.5092014385915
 20
176.4159867353755
 30
0.0
  0
VERTEX
  5
4F0
  8
0
 10
-11.75119584406912
 20
176.5216146578872
 30
0.0
  0
VERTEX
  5
4F1
  8
0
 10
-11.978055814009
 20
176.6380976238191
 30
0.0
  0
VERTEX
  5
4F2
  8
0
 10
-12.18978134841114
 20
176.7654356331711
 30
0.0
  0
VERTEX
  5
4F3
  8
0
 10
-12.38637244727553
 20
176.9036286859433
 30
0.0
  0
VERTEX
  5
4F4
  8
0
 10
-12.56782911060219
 20
177.0526767821357
 30
0.0
  0
VERTEX
  5
4F5
  8
0
 10
-12.7341513383911
 20
177.2125799217483
 30
0.0
  0
VERTEX
  5
4F6
  8
0
 10
-12.88533913064227
 20
177.383338104781
 30
0.0
  0
VERTEX
  5
4F7
  8
0
 10
-13.01998341921942
 20
177.5652122697776
 30
0.0
  0
VERTEX
  5
4F8
  8
0
 10
-13.13667513598629
 20
177.758463355282
 30
0.0
  0
VERTEX
  5
4F9
  8
0
 10
-13.23541428094287
 20
177.963091361294
 30
0.0
  0
VERTEX
  5
4FA
  8
0
 10
-13.31620085408916
 20
178.1790962878137
 30
0.0
  0
VERTEX
  5
4FB
  8
0
 10
-13.37903485542516
 20
178.4064781348411
 30
0.0
  0
VERTEX
  5
4FC
  8
0
 10
-13.42391628495088
 20
178.6452369023762
 30
0.0
  0
VERTEX
  5
4FD
  8
0
 10
-13.45084514266632
 20
178.8953725904189
 30
0.0
  0
VERTEX
  5
4FE
  8
0
 10
-13.45982142857146
 20
179.1568851989694
 30
0.0
  0
VERTEX
  5
4FF
  8
0
 10
-13.45486359624013
 20
179.350919100105
 30
0.0
  0
VERTEX
  5
500
  8
0
 10
-13.43999009924614
 20
179.5388992270255
 30
0.0
  0
VERTEX
  5
501
  8
0
 10
-13.41520093758949
 20
179.7208255797309
 30
0.0
  0
VERTEX
  5
502
  8
0
 10
-13.38049611127019
 20
179.8966981582212
 30
0.0
  0
VERTEX
  5
503
  8
0
 10
-13.33587562028822
 20
180.0665169624964
 30
0.0
  0
VERTEX
  5
504
  8
0
 10
-13.2813394646436
 20
180.2302819925565
 30
0.0
  0
VERTEX
  5
505
  8
0
 10
-13.21688764433632
 20
180.3879932484016
 30
0.0
  0
VERTEX
  5
506
  8
0
 10
-13.14252015936638
 20
180.5396507300315
 30
0.0
  0
VERTEX
  5
507
  8
0
 10
-13.05881107453004
 20
180.6850456866113
 30
0.0
  0
VERTEX
  5
508
  8
0
 10
-12.96633445462356
 20
180.8239693673061
 30
0.0
  0
VERTEX
  5
509
  8
0
 10
-12.86509029964694
 20
180.9564217721157
 30
0.0
  0
VERTEX
  5
50A
  8
0
 10
-12.75507860960018
 20
181.0824029010402
 30
0.0
  0
VERTEX
  5
50B
  8
0
 10
-12.63629938448328
 20
181.2019127540796
 30
0.0
  0
VERTEX
  5
50C
  8
0
 10
-12.50875262429624
 20
181.3149513312339
 30
0.0
  0
VERTEX
  5
50D
  8
0
 10
-12.37243832903906
 20
181.4215186325031
 30
0.0
  0
VERTEX
  5
50E
  8
0
 10
-12.22735649871174
 20
181.5216146578872
 30
0.0
  0
VERTEX
  5
50F
  8
0
 10
-12.07382025956678
 20
181.6158656598913
 30
0.0
  0
VERTEX
  5
510
  8
0
 10
-11.91214273785669
 20
181.7048978910202
 30
0.0
  0
VERTEX
  5
511
  8
0
 10
-11.74232393358148
 20
181.788711351274
 30
0.0
  0
VERTEX
  5
512
  8
0
 10
-11.56436384674113
 20
181.8673060406527
 30
0.0
  0
VERTEX
  5
513
  8
0
 10
-11.37826247733565
 20
181.9406819591564
 30
0.0
  0
VERTEX
  5
514
  8
0
 10
-11.18401982536504
 20
182.008839106785
 30
0.0
  0
VERTEX
  5
515
  8
0
 10
-10.77111067372844
 20
182.1294970894169
 30
0.0
  0
VERTEX
  5
516
  8
0
 10
-10.54717321547861
 20
182.1811629210802
 30
0.0
  0
VERTEX
  5
517
  8
0
 10
-10.30455255749597
 20
182.2259399751885
 30
0.0
  0
VERTEX
  5
518
  8
0
 10
-10.04324869978054
 20
182.2638282517415
 30
0.0
  0
VERTEX
  5
519
  8
0
 10
-9.763261642332314
 20
182.2948277507396
 30
0.0
  0
VERTEX
  5
51A
  8
0
 10
-9.464591385151284
 20
182.3189384721824
 30
0.0
  0
VERTEX
  5
51B
  8
0
 10
-9.147237928237455
 20
182.3361604160702
 30
0.0
  0
VERTEX
  5
51C
  8
0
 10
-8.456481415211403
 20
182.3499379711805
 30
0.0
  0
VERTEX
  5
51D
  8
0
 10
-8.036005045805926
 20
182.3444060740528
 30
0.0
  0
VERTEX
  5
51E
  8
0
 10
-7.636299384483281
 20
182.3278103826701
 30
0.0
  0
VERTEX
  5
51F
  8
0
 10
-7.257364431243468
 20
182.3001508970322
 30
0.0
  0
VERTEX
  5
520
  8
0
 10
-6.899200186086489
 20
182.261427617139
 30
0.0
  0
VERTEX
  5
521
  8
0
 10
-6.56180664901234
 20
182.2116405429907
 30
0.0
  0
VERTEX
  5
522
  8
0
 10
-6.245183820021024
 20
182.1507896745873
 30
0.0
  0
VERTEX
  5
523
  8
0
 10
-5.949331699112541
 20
182.0788750119286
 30
0.0
  0
VERTEX
  5
524
  8
0
 10
-5.67425028628689
 20
181.9958965550148
 30
0.0
  0
VERTEX
  5
525
  8
0
 10
-5.417069257562775
 20
181.9019064915546
 30
0.0
  0
VERTEX
  5
526
  8
0
 10
-5.174918288958901
 20
181.7969570092566
 30
0.0
  0
VERTEX
  5
527
  8
0
 10
-4.947797380475268
 20
181.681048108121
 30
0.0
  0
VERTEX
  5
528
  8
0
 10
-4.735706532111874
 20
181.5541797881477
 30
0.0
  0
VERTEX
  5
529
  8
0
 10
-4.538645743868721
 20
181.4163520493368
 30
0.0
  0
VERTEX
  5
52A
  8
0
 10
-4.356615015745809
 20
181.2675648916882
 30
0.0
  0
VERTEX
  5
52B
  8
0
 10
-4.189614347743136
 20
181.1078183152019
 30
0.0
  0
VERTEX
  5
52C
  8
0
 10
-4.037643739860704
 20
180.9371123198779
 30
0.0
  0
VERTEX
  5
52D
  8
0
 10
-3.902216635652287
 20
180.7551337794637
 30
0.0
  0
VERTEX
  5
52E
  8
0
 10
-3.78484647867166
 20
180.5615695677068
 30
0.0
  0
VERTEX
  5
52F
  8
0
 10
-3.685533268918821
 20
180.3564196846073
 30
0.0
  0
VERTEX
  5
530
  8
0
 10
-3.604277006393771
 20
180.1396841301651
 30
0.0
  0
VERTEX
  5
531
  8
0
 10
-3.541077691096509
 20
179.9113629043802
 30
0.0
  0
VERTEX
  5
532
  8
0
 10
-3.495935323027037
 20
179.6714560072526
 30
0.0
  0
VERTEX
  5
533
  8
0
 10
-3.468849902185354
 20
179.4199634387824
 30
0.0
  0
VERTEX
  5
534
  8
0
 10
-3.459821428571459
 20
179.1568851989694
 30
0.0
  0
VERTEX
  5
535
  8
0
 10
-3.463787694436523
 20
178.9822390316347
 30
0.0
  0
VERTEX
  5
536
  8
0
 10
-3.475686492031714
 20
178.8123419457964
 30
0.0
  0
VERTEX
  5
537
  8
0
 10
-3.495517821357031
 20
178.6471939414544
 30
0.0
  0
VERTEX
  5
538
  8
0
 10
-3.523281682412475
 20
178.4867950186087
 30
0.0
  0
VERTEX
  5
539
  8
0
 10
-3.558978075198046
 20
178.3311451772593
 30
0.0
  0
VERTEX
  5
53A
  8
0
 10
-3.602606999713744
 20
178.1802444174062
 30
0.0
  0
VERTEX
  5
53B
  8
0
 10
-3.654168455959569
 20
178.0340927390495
 30
0.0
  0
VERTEX
  5
53C
  8
0
 10
-3.713662443935521
 20
177.8926901421891
 30
0.0
  0
VERTEX
  5
53D
  8
0
 10
-3.7810889636416
 20
177.7560366268251
 30
0.0
  0
VERTEX
  5
53E
  8
0
 10
-3.856448015077806
 20
177.6241321929574
 30
0.0
  0
VERTEX
  5
53F
  8
0
 10
-3.939739598244138
 20
177.496976840586
 30
0.0
  0
VERTEX
  5
540
  8
0
 10
-4.030963713140598
 20
177.3745705697109
 30
0.0
  0
VERTEX
  5
541
  8
0
 10
-4.130120359767185
 20
177.2569133803321
 30
0.0
  0
VERTEX
  5
542
  8
0
 10
-4.237209538123897
 20
177.1440052724497
 30
0.0
  0
VERTEX
  5
543
  8
0
 10
-4.352231248210739
 20
177.0358462460636
 30
0.0
  0
VERTEX
  5
544
  8
0
 10
-4.475185490027705
 20
176.9324363011738
 30
0.0
  0
VERTEX
  5
545
  8
0
 10
-4.633992687756496
 20
176.8151444257563
 30
0.0
  0
VERTEX
  5
546
  8
0
 10
-4.804803058497978
 20
176.7054197681076
 30
0.0
  0
VERTEX
  5
547
  8
0
 10
-4.987616602252153
 20
176.6032623282279
 30
0.0
  0
VERTEX
  5
548
  8
0
 10
-5.182433319019021
 20
176.508672106117
 30
0.0
  0
VERTEX
  5
549
  8
0
 10
-5.38925320879858
 20
176.421649101775
 30
0.0
  0
VERTEX
  5
54A
  8
0
 10
-5.608076271590831
 20
176.3421933152019
 30
0.0
  0
VERTEX
  5
54B
  8
0
 10
-5.838902507395775
 20
176.2703047463976
 30
0.0
  0
VERTEX
  5
54C
  8
0
 10
-6.08173191621341
 20
176.2059833953622
 30
0.0
  0
VERTEX
  5
54D
  8
0
 10
-6.336564498043736
 20
176.1492292620956
 30
0.0
  0
VERTEX
  5
54E
  8
0
 10
-6.603400252886755
 20
176.1000423465979
 30
0.0
  0
VERTEX
  5
54F
  8
0
 10
-6.882239180742467
 20
176.0584226488692
 30
0.0
  0
VERTEX
  5
550
  8
0
 10
-7.17308128161087
 20
176.0243701689093
 30
0.0
  0
VERTEX
  5
551
  8
0
 10
-7.475926555491965
 20
175.9978849067182
 30
0.0
  0
VERTEX
  5
552
  8
0
 10
-7.790775002385752
 20
175.978966862296
 30
0.0
  0
VERTEX
  5
553
  8
0
 10
-8.117626622292232
 20
175.9676160356427
 30
0.0
  0
SEQEND
  5
E8F
  8
0
  0
POLYLINE
  5
7E
  8
0
 66
     1
 10
0.0
 20
0.0
 30
0.0
 70
     1
  0
VERTEX
  5
554
  8
0
 10
-8.456481415211403
 20
177.1996373699781
 30
0.0
  0
VERTEX
  5
555
  8
0
 10
-7.878815667048412
 20
177.208457092757
 30
0.0
  0
VERTEX
  5
556
  8
0
 10
-7.351563245538726
 20
177.2349162610936
 30
0.0
  0
VERTEX
  5
557
  8
0
 10
-6.874724150682347
 20
177.2790148749881
 30
0.0
  0
VERTEX
  5
558
  8
0
 10
-6.448298382479274
 20
177.3407529344403
 30
0.0
  0
VERTEX
  5
559
  8
0
 10
-6.072285940929508
 20
177.4201304394504
 30
0.0
  0
VERTEX
  5
55A
  8
0
 10
-5.903184717649615
 20
177.4664339840395
 30
0.0
  0
VERTEX
  5
55B
  8
0
 10
-5.746686826033049
 20
177.5171473900181
 30
0.0
  0
VERTEX
  5
55C
  8
0
 10
-5.602792266079809
 20
177.5722706573862
 30
0.0
  0
VERTEX
  5
55D
  8
0
 10
-5.471501037789896
 20
177.6318037861437
 30
0.0
  0
VERTEX
  5
55E
  8
0
 10
-5.352813141163309
 20
177.6957467762907
 30
0.0
  0
VERTEX
  5
55F
  8
0
 10
-5.24672857620005
 20
177.7640996278271
 30
0.0
  0
VERTEX
  5
560
  8
0
 10
-5.059635640328306
 20
177.9093380212807
 30
0.0
  0
VERTEX
  5
561
  8
0
 10
-4.897488429239462
 20
178.0628220727169
 30
0.0
  0
VERTEX
  5
562
  8
0
 10
-4.760286942933517
 20
178.2245517821357
 30
0.0
  0
VERTEX
  5
563
  8
0
 10
-4.648031181410471
 20
178.3945271495372
 30
0.0
  0
VERTEX
  5
564
  8
0
 10
-4.560721144670325
 20
178.5727481749213
 30
0.0
  0
VERTEX
  5
565
  8
0
 10
-4.498356832713077
 20
178.759214858288
 30
0.0
  0
VERTEX
  5
566
  8
0
 10
-4.460938245538728
 20
178.9539271996374
 30
0.0
  0
VERTEX
  5
567
  8
0
 10
-4.448465383147278
 20
179.1568851989694
 30
0.0
  0
VERTEX
  5
568
  8
0
 10
-4.460990433247479
 20
179.3598431983014
 30
0.0
  0
VERTEX
  5
569
  8
0
 10
-4.498565583548079
 20
179.5545555396507
 30
0.0
  0
VERTEX
  5
56A
  8
0
 10
-4.561190834049082
 20
179.7410222230175
 30
0.0
  0
VERTEX
  5
56B
  8
0
 10
-4.648866184750484
 20
179.9192432484016
 30
0.0
  0
VERTEX
  5
56C
  8
0
 10
-4.761591635652287
 20
180.089218615803
 30
0.0
  0
VERTEX
  5
56D
  8
0
 10
-4.899367186754492
 20
180.2509483252219
 30
0.0
  0
VERTEX
  5
56E
  8
0
 10
-5.062192838057098
 20
180.4044323766581
 30
0.0
  0
VERTEX
  5
56F
  8
0
 10
-5.250068589560104
 20
180.5496707701117
 30
0.0
  0
VERTEX
  5
570
  8
0
 10
-5.356531515411806
 20
180.6180236216481
 30
0.0
  0
VERTEX
  5
571
  8
0
 10
-5.475519491363711
 20
180.681966611795
 30
0.0
  0
VERTEX
  5
572
  8
0
 10
-5.607032517415815
 20
180.7414997405526
 30
0.0
  0
VERTEX
  5
573
  8
0
 10
-5.751070593568119
 20
180.7966230079206
 30
0.0
  0
VERTEX
  5
574
  8
0
 10
-5.907633719820624
 20
180.8473364138993
 30
0.0
  0
VERTEX
  5
575
  8
0
 10
-6.076721896173329
 20
180.8936399584884
 30
0.0
  0
VERTEX
  5
576
  8
0
 10
-6.452473399179341
 20
180.9730174634984
 30
0.0
  0
VERTEX
  5
577
  8
0
 10
-6.878325102586155
 20
181.0347555229507
 30
0.0
  0
VERTEX
  5
578
  8
0
 10
-7.354277006393769
 20
181.0788541368451
 30
0.0
  0
VERTEX
  5
579
  8
0
 10
-7.880329110602186
 20
181.1053133051818
 30
0.0
  0
VERTEX
  5
57A
  8
0
 10
-8.456481415211403
 20
181.1141330279607
 30
0.0
  0
VERTEX
  5
57B
  8
0
 10
-9.035660606928172
 20
181.1053133051818
 30
0.0
  0
VERTEX
  5
57C
  8
0
 10
-9.564113345739127
 20
181.0788541368451
 30
0.0
  0
VERTEX
  5
57D
  8
0
 10
-10.04183963164427
 20
181.0347555229507
 30
0.0
  0
VERTEX
  5
57E
  8
0
 10
-10.4688394646436
 20
180.9730174634984
 30
0.0
  0
VERTEX
  5
57F
  8
0
 10
-10.84511284473712
 20
180.8936399584884
 30
0.0
  0
VERTEX
  5
580
  8
0
 10
-11.0142271149442
 20
180.8473364138993
 30
0.0
  0
VERTEX
  5
581
  8
0
 10
-11.17065977192483
 20
180.7966230079206
 30
0.0
  0
VERTEX
  5
582
  8
0
 10
-11.31441081567901
 20
180.7414997405526
 30
0.0
  0
VERTEX
  5
583
  8
0
 10
-11.44548024620673
 20
180.681966611795
 30
0.0
  0
VERTEX
  5
584
  8
0
 10
-11.563868063508
 20
180.6180236216481
 30
0.0
  0
VERTEX
  5
585
  8
0
 10
-11.66957426758281
 20
180.5496707701117
 30
0.0
  0
VERTEX
  5
586
  8
0
 10
-11.85588438782329
 20
180.4042236258231
 30
0.0
  0
VERTEX
  5
587
  8
0
 10
-12.01735315869838
 20
180.2501133218819
 30
0.0
  0
VERTEX
  5
588
  8
0
 10
-12.15398058020807
 20
180.087339858288
 30
0.0
  0
VERTEX
  5
589
  8
0
 10
-12.26576665235235
 20
179.9159032350415
 30
0.0
  0
VERTEX
  5
58A
  8
0
 10
-12.35271137513124
 20
179.7358034521424
 30
0.0
  0
VERTEX
  5
58B
  8
0
 10
-12.41481474854474
 20
179.5470405095906
 30
0.0
  0
VERTEX
  5
58C
  8
0
 10
-12.45207677259284
 20
179.3496144073862
 30
0.0
  0
VERTEX
  5
58D
  8
0
 10
-12.46449744727553
 20
179.1435251455292
 30
0.0
  0
VERTEX
  5
58E
  8
0
 10
-12.45353802843786
 20
178.9416630880809
 30
0.0
  0
VERTEX
  5
58F
  8
0
 10
-12.42065977192483
 20
178.7502385723828
 30
0.0
  0
VERTEX
  5
590
  8
0
 10
-12.36586267773646
 20
178.569251598435
 30
0.0
  0
VERTEX
  5
591
  8
0
 10
-12.28914674587273
 20
178.3987021662372
 30
0.0
  0
VERTEX
  5
592
  8
0
 10
-12.19051197633365
 20
178.2385902757897
 30
0.0
  0
VERTEX
  5
593
  8
0
 10
-12.06995836911922
 20
178.0889159270923
 30
0.0
  0
VERTEX
  5
594
  8
0
 10
-11.92748592422944
 20
177.949679120145
 30
0.0
  0
VERTEX
  5
595
  8
0
 10
-11.76309464166431
 20
177.820879854948
 30
0.0
  0
VERTEX
  5
596
  8
0
 10
-11.6452808891593
 20
177.7456512727837
 30
0.0
  0
VERTEX
  5
597
  8
0
 10
-11.51562052676785
 20
177.6752761475332
 30
0.0
  0
VERTEX
  5
598
  8
0
 10
-11.37411355448996
 20
177.6097544791965
 30
0.0
  0
VERTEX
  5
599
  8
0
 10
-11.22075997232563
 20
177.5490862677736
 30
0.0
  0
VERTEX
  5
59A
  8
0
 10
-11.05555978027487
 20
177.4932715132646
 30
0.0
  0
VERTEX
  5
59B
  8
0
 10
-10.87851297833766
 20
177.4423102156695
 30
0.0
  0
VERTEX
  5
59C
  8
0
 10
-10.48887954480392
 20
177.3549479912206
 30
0.0
  0
VERTEX
  5
59D
  8
0
 10
-10.05185967172443
 20
177.286999594427
 30
0.0
  0
VERTEX
  5
59E
  8
0
 10
-9.56745335909918
 20
177.2384650252887
 30
0.0
  0
VERTEX
  5
59F
  8
0
 10
-9.035660606928172
 20
177.2093442838057
 30
0.0
  0
SEQEND
  5
E90
  8
0
  0
POLYLINE
  5
7F
  8
0
 66
     1
 10
0.0
 20
0.0
 30
0.0
 70
     1
  0
VERTEX
  5
5A0
  8
0
 10
-8.456481415211403
 20
183.57238286096
 30
0.0
  0
VERTEX
  5
5A1
  8
0
 10
-8.880089047141931
 20
183.5779669457964
 30
0.0
  0
VERTEX
  5
5A2
  8
0
 10
-9.282508469319621
 20
183.5947192003054
 30
0.0
  0
VERTEX
  5
5A3
  8
0
 10
-9.66373968174447
 20
183.6226396244871
 30
0.0
  0
VERTEX
  5
5A4
  8
0
 10
-10.02378268441648
 20
183.6617282183415
 30
0.0
  0
VERTEX
  5
5A5
  8
0
 10
-10.36263747733565
 20
183.7119849818685
 30
0.0
  0
VERTEX
  5
5A6
  8
0
 10
-10.68030406050199
 20
183.7734099150682
 30
0.0
  0
VERTEX
  5
5A7
  8
0
 10
-10.97678243391548
 20
183.8460030179406
 30
0.0
  0
VERTEX
  5
5A8
  8
0
 10
-11.25207259757613
 20
183.9297642904857
 30
0.0
  0
VERTEX
  5
5A9
  8
0
 10
-11.5092014385915
 20
184.0245371695773
 30
0.0
  0
VERTEX
  5
5AA
  8
0
 10
-11.75119584406912
 20
184.130165092089
 30
0.0
  0
VERTEX
  5
5AB
  8
0
 10
-11.978055814009
 20
184.2466480580208
 30
0.0
  0
VERTEX
  5
5AC
  8
0
 10
-12.18978134841114
 20
184.3739860673728
 30
0.0
  0
VERTEX
  5
5AD
  8
0
 10
-12.38637244727553
 20
184.512179120145
 30
0.0
  0
VERTEX
  5
5AE
  8
0
 10
-12.56782911060218
 20
184.6612272163374
 30
0.0
  0
VERTEX
  5
5AF
  8
0
 10
-12.7341513383911
 20
184.82113035595
 30
0.0
  0
VERTEX
  5
5B0
  8
0
 10
-12.88533913064227
 20
184.9918885389827
 30
0.0
  0
VERTEX
  5
5B1
  8
0
 10
-13.01998341921942
 20
185.1737627039794
 30
0.0
  0
VERTEX
  5
5B2
  8
0
 10
-13.13667513598629
 20
185.3670137894837
 30
0.0
  0
VERTEX
  5
5B3
  8
0
 10
-13.23541428094287
 20
185.5716417954957
 30
0.0
  0
VERTEX
  5
5B4
  8
0
 10
-13.31620085408916
 20
185.7876467220154
 30
0.0
  0
VERTEX
  5
5B5
  8
0
 10
-13.37903485542516
 20
186.0150285690428
 30
0.0
  0
VERTEX
  5
5B6
  8
0
 10
-13.42391628495088
 20
186.2537873365779
 30
0.0
  0
VERTEX
  5
5B7
  8
0
 10
-13.45084514266631
 20
186.5039230246206
 30
0.0
  0
VERTEX
  5
5B8
  8
0
 10
-13.45982142857146
 20
186.7654356331711
 30
0.0
  0
VERTEX
  5
5B9
  8
0
 10
-13.45486359624013
 20
186.9594695343067
 30
0.0
  0
VERTEX
  5
5BA
  8
0
 10
-13.43999009924614
 20
187.1474496612272
 30
0.0
  0
VERTEX
  5
5BB
  8
0
 10
-13.41520093758949
 20
187.3293760139326
 30
0.0
  0
VERTEX
  5
5BC
  8
0
 10
-13.38049611127019
 20
187.5052485924229
 30
0.0
  0
VERTEX
  5
5BD
  8
0
 10
-13.33587562028822
 20
187.6750673966981
 30
0.0
  0
VERTEX
  5
5BE
  8
0
 10
-13.2813394646436
 20
187.8388324267582
 30
0.0
  0
VERTEX
  5
5BF
  8
0
 10
-13.21688764433632
 20
187.9965436826033
 30
0.0
  0
VERTEX
  5
5C0
  8
0
 10
-13.14252015936638
 20
188.1482011642332
 30
0.0
  0
VERTEX
  5
5C1
  8
0
 10
-13.05881107453004
 20
188.293596120813
 30
0.0
  0
VERTEX
  5
5C2
  8
0
 10
-12.96633445462356
 20
188.4325198015078
 30
0.0
  0
VERTEX
  5
5C3
  8
0
 10
-12.86509029964694
 20
188.5649722063174
 30
0.0
  0
VERTEX
  5
5C4
  8
0
 10
-12.75507860960018
 20
188.6909533352419
 30
0.0
  0
VERTEX
  5
5C5
  8
0
 10
-12.63629938448328
 20
188.8104631882813
 30
0.0
  0
VERTEX
  5
5C6
  8
0
 10
-12.50875262429624
 20
188.9235017654357
 30
0.0
  0
VERTEX
  5
5C7
  8
0
 10
-12.37243832903906
 20
189.0300690667048
 30
0.0
  0
VERTEX
  5
5C8
  8
0
 10
-12.22735649871174
 20
189.1301650920889
 30
0.0
  0
VERTEX
  5
5C9
  8
0
 10
-12.07382025956678
 20
189.224416094093
 30
0.0
  0
VERTEX
  5
5CA
  8
0
 10
-11.91214273785669
 20
189.3134483252219
 30
0.0
  0
VERTEX
  5
5CB
  8
0
 10
-11.74232393358148
 20
189.3972617854757
 30
0.0
  0
VERTEX
  5
5CC
  8
0
 10
-11.56436384674113
 20
189.4758564748545
 30
0.0
  0
VERTEX
  5
5CD
  8
0
 10
-11.37826247733565
 20
189.5492323933582
 30
0.0
  0
VERTEX
  5
5CE
  8
0
 10
-11.18401982536504
 20
189.6173895409867
 30
0.0
  0
VERTEX
  5
5CF
  8
0
 10
-10.77111067372844
 20
189.7380475236187
 30
0.0
  0
VERTEX
  5
5D0
  8
0
 10
-10.54717321547861
 20
189.789713355282
 30
0.0
  0
VERTEX
  5
5D1
  8
0
 10
-10.30455255749597
 20
189.8344904093902
 30
0.0
  0
VERTEX
  5
5D2
  8
0
 10
-10.04324869978054
 20
189.8723786859433
 30
0.0
  0
VERTEX
  5
5D3
  8
0
 10
-9.763261642332314
 20
189.9033781849413
 30
0.0
  0
VERTEX
  5
5D4
  8
0
 10
-9.464591385151284
 20
189.9274889063842
 30
0.0
  0
VERTEX
  5
5D5
  8
0
 10
-9.147237928237455
 20
189.9447108502719
 30
0.0
  0
VERTEX
  5
5D6
  8
0
 10
-8.456481415211403
 20
189.9584884053822
 30
0.0
  0
VERTEX
  5
5D7
  8
0
 10
-8.036005045805926
 20
189.9529565082546
 30
0.0
  0
VERTEX
  5
5D8
  8
0
 10
-7.636299384483281
 20
189.9363608168718
 30
0.0
  0
VERTEX
  5
5D9
  8
0
 10
-7.257364431243468
 20
189.9087013312339
 30
0.0
  0
VERTEX
  5
5DA
  8
0
 10
-6.899200186086489
 20
189.8699780513408
 30
0.0
  0
VERTEX
  5
5DB
  8
0
 10
-6.56180664901234
 20
189.8201909771925
 30
0.0
  0
VERTEX
  5
5DC
  8
0
 10
-6.245183820021024
 20
189.759340108789
 30
0.0
  0
VERTEX
  5
5DD
  8
0
 10
-5.949331699112541
 20
189.6874254461304
 30
0.0
  0
VERTEX
  5
5DE
  8
0
 10
-5.67425028628689
 20
189.6044469892165
 30
0.0
  0
VERTEX
  5
5DF
  8
0
 10
-5.417069257562775
 20
189.5104569257563
 30
0.0
  0
VERTEX
  5
5E0
  8
0
 10
-5.174918288958901
 20
189.4055074434584
 30
0.0
  0
VERTEX
  5
5E1
  8
0
 10
-4.947797380475267
 20
189.2895985423228
 30
0.0
  0
VERTEX
  5
5E2
  8
0
 10
-4.735706532111873
 20
189.1627302223495
 30
0.0
  0
VERTEX
  5
5E3
  8
0
 10
-4.53864574386872
 20
189.0249024835385
 30
0.0
  0
VERTEX
  5
5E4
  8
0
 10
-4.356615015745808
 20
188.8761153258899
 30
0.0
  0
VERTEX
  5
5E5
  8
0
 10
-4.189614347743136
 20
188.7163687494036
 30
0.0
  0
VERTEX
  5
5E6
  8
0
 10
-4.037643739860704
 20
188.5456627540796
 30
0.0
  0
VERTEX
  5
5E7
  8
0
 10
-3.902216635652287
 20
188.3636842136654
 30
0.0
  0
VERTEX
  5
5E8
  8
0
 10
-3.78484647867166
 20
188.1701200019086
 30
0.0
  0
VERTEX
  5
5E9
  8
0
 10
-3.68553326891882
 20
187.964970118809
 30
0.0
  0
VERTEX
  5
5EA
  8
0
 10
-3.604277006393771
 20
187.7482345643668
 30
0.0
  0
VERTEX
  5
5EB
  8
0
 10
-3.541077691096508
 20
187.5199133385819
 30
0.0
  0
VERTEX
  5
5EC
  8
0
 10
-3.495935323027036
 20
187.2800064414544
 30
0.0
  0
VERTEX
  5
5ED
  8
0
 10
-3.468849902185353
 20
187.0285138729841
 30
0.0
  0
VERTEX
  5
5EE
  8
0
 10
-3.459821428571459
 20
186.7654356331711
 30
0.0
  0
VERTEX
  5
5EF
  8
0
 10
-3.463787694436522
 20
186.5907894658365
 30
0.0
  0
VERTEX
  5
5F0
  8
0
 10
-3.475686492031713
 20
186.4208923799981
 30
0.0
  0
VERTEX
  5
5F1
  8
0
 10
-3.49551782135703
 20
186.2557443756561
 30
0.0
  0
VERTEX
  5
5F2
  8
0
 10
-3.523281682412474
 20
186.0953454528104
 30
0.0
  0
VERTEX
  5
5F3
  8
0
 10
-3.558978075198045
 20
185.939695611461
 30
0.0
  0
VERTEX
  5
5F4
  8
0
 10
-3.602606999713744
 20
185.788794851608
 30
0.0
  0
VERTEX
  5
5F5
  8
0
 10
-3.654168455959568
 20
185.6426431732513
 30
0.0
  0
VERTEX
  5
5F6
  8
0
 10
-3.713662443935521
 20
185.5012405763909
 30
0.0
  0
VERTEX
  5
5F7
  8
0
 10
-3.781088963641599
 20
185.3645870610268
 30
0.0
  0
VERTEX
  5
5F8
  8
0
 10
-3.856448015077805
 20
185.2326826271591
 30
0.0
  0
VERTEX
  5
5F9
  8
0
 10
-3.939739598244137
 20
185.1055272747877
 30
0.0
  0
VERTEX
  5
5FA
  8
0
 10
-4.030963713140597
 20
184.9831210039126
 30
0.0
  0
VERTEX
  5
5FB
  8
0
 10
-4.130120359767183
 20
184.8654638145338
 30
0.0
  0
VERTEX
  5
5FC
  8
0
 10
-4.237209538123897
 20
184.7525557066514
 30
0.0
  0
VERTEX
  5
5FD
  8
0
 10
-4.352231248210737
 20
184.6443966802653
 30
0.0
  0
VERTEX
  5
5FE
  8
0
 10
-4.475185490027705
 20
184.5409867353755
 30
0.0
  0
VERTEX
  5
5FF
  8
0
 10
-4.633992687756496
 20
184.423694859958
 30
0.0
  0
VERTEX
  5
600
  8
0
 10
-4.804803058497978
 20
184.3139702023094
 30
0.0
  0
VERTEX
  5
601
  8
0
 10
-4.987616602252153
 20
184.2118127624296
 30
0.0
  0
VERTEX
  5
602
  8
0
 10
-5.182433319019021
 20
184.1172225403187
 30
0.0
  0
VERTEX
  5
603
  8
0
 10
-5.38925320879858
 20
184.0301995359767
 30
0.0
  0
VERTEX
  5
604
  8
0
 10
-5.60807627159083
 20
183.9507437494036
 30
0.0
  0
VERTEX
  5
605
  8
0
 10
-5.838902507395774
 20
183.8788551805993
 30
0.0
  0
VERTEX
  5
606
  8
0
 10
-6.081731916213409
 20
183.8145338295639
 30
0.0
  0
VERTEX
  5
607
  8
0
 10
-6.336564498043736
 20
183.7577796962973
 30
0.0
  0
VERTEX
  5
608
  8
0
 10
-6.603400252886755
 20
183.7085927807997
 30
0.0
  0
VERTEX
  5
609
  8
0
 10
-6.882239180742467
 20
183.6669730830709
 30
0.0
  0
VERTEX
  5
60A
  8
0
 10
-7.17308128161087
 20
183.632920603111
 30
0.0
  0
VERTEX
  5
60B
  8
0
 10
-7.475926555491965
 20
183.6064353409199
 30
0.0
  0
VERTEX
  5
60C
  8
0
 10
-7.790775002385752
 20
183.5875172964978
 30
0.0
  0
VERTEX
  5
60D
  8
0
 10
-8.117626622292232
 20
183.5761664698445
 30
0.0
  0
SEQEND
  5
E91
  8
0
  0
POLYLINE
  5
80
  8
0
 66
     1
 10
0.0
 20
0.0
 30
0.0
 70
     1
  0
VERTEX
  5
60E
  8
0
 10
-8.456481415211403
 20
184.8081878041798
 30
0.0
  0
VERTEX
  5
60F
  8
0
 10
-7.878815667048412
 20
184.8170075269587
 30
0.0
  0
VERTEX
  5
610
  8
0
 10
-7.351563245538726
 20
184.8434666952953
 30
0.0
  0
VERTEX
  5
611
  8
0
 10
-6.874724150682347
 20
184.8875653091898
 30
0.0
  0
VERTEX
  5
612
  8
0
 10
-6.448298382479274
 20
184.9493033686421
 30
0.0
  0
VERTEX
  5
613
  8
0
 10
-6.072285940929508
 20
185.0286808736521
 30
0.0
  0
VERTEX
  5
614
  8
0
 10
-5.903184717649615
 20
185.0749844182412
 30
0.0
  0
VERTEX
  5
615
  8
0
 10
-5.746686826033049
 20
185.1256978242199
 30
0.0
  0
VERTEX
  5
616
  8
0
 10
-5.602792266079809
 20
185.1808210915879
 30
0.0
  0
VERTEX
  5
617
  8
0
 10
-5.471501037789896
 20
185.2403542203455
 30
0.0
  0
VERTEX
  5
618
  8
0
 10
-5.352813141163309
 20
185.3042972104924
 30
0.0
  0
VERTEX
  5
619
  8
0
 10
-5.24672857620005
 20
185.3726500620288
 30
0.0
  0
VERTEX
  5
61A
  8
0
 10
-5.059635640328306
 20
185.5178884554824
 30
0.0
  0
VERTEX
  5
61B
  8
0
 10
-4.897488429239461
 20
185.6713725069186
 30
0.0
  0
VERTEX
  5
61C
  8
0
 10
-4.760286942933517
 20
185.8331022163374
 30
0.0
  0
VERTEX
  5
61D
  8
0
 10
-4.64803118141047
 20
186.0030775837389
 30
0.0
  0
VERTEX
  5
61E
  8
0
 10
-4.560721144670323
 20
186.181298609123
 30
0.0
  0
VERTEX
  5
61F
  8
0
 10
-4.498356832713075
 20
186.3677652924898
 30
0.0
  0
VERTEX
  5
620
  8
0
 10
-4.460938245538726
 20
186.5624776338391
 30
0.0
  0
VERTEX
  5
621
  8
0
 10
-4.448465383147277
 20
186.7654356331711
 30
0.0
  0
VERTEX
  5
622
  8
0
 10
-4.460990433247478
 20
186.9683936325031
 30
0.0
  0
VERTEX
  5
623
  8
0
 10
-4.498565583548078
 20
187.1631059738525
 30
0.0
  0
VERTEX
  5
624
  8
0
 10
-4.56119083404908
 20
187.3495726572192
 30
0.0
  0
VERTEX
  5
625
  8
0
 10
-4.648866184750483
 20
187.5277936826033
 30
0.0
  0
VERTEX
  5
626
  8
0
 10
-4.761591635652287
 20
187.6977690500048
 30
0.0
  0
VERTEX
  5
627
  8
0
 10
-4.899367186754491
 20
187.8594987594236
 30
0.0
  0
VERTEX
  5
628
  8
0
 10
-5.062192838057097
 20
188.0129828108598
 30
0.0
  0
VERTEX
  5
629
  8
0
 10
-5.250068589560103
 20
188.1582212043134
 30
0.0
  0
VERTEX
  5
62A
  8
0
 10
-5.356531515411806
 20
188.2265740558498
 30
0.0
  0
VERTEX
  5
62B
  8
0
 10
-5.47551949136371
 20
188.2905170459968
 30
0.0
  0
VERTEX
  5
62C
  8
0
 10
-5.607032517415814
 20
188.3500501747543
 30
0.0
  0
VERTEX
  5
62D
  8
0
 10
-5.751070593568119
 20
188.4051734421224
 30
0.0
  0
VERTEX
  5
62E
  8
0
 10
-5.907633719820624
 20
188.455886848101
 30
0.0
  0
VERTEX
  5
62F
  8
0
 10
-6.076721896173329
 20
188.5021903926901
 30
0.0
  0
VERTEX
  5
630
  8
0
 10
-6.452473399179341
 20
188.5815678977002
 30
0.0
  0
VERTEX
  5
631
  8
0
 10
-6.878325102586155
 20
188.6433059571524
 30
0.0
  0
VERTEX
  5
632
  8
0
 10
-7.354277006393769
 20
188.6874045710469
 30
0.0
  0
VERTEX
  5
633
  8
0
 10
-7.880329110602186
 20
188.7138637393835
 30
0.0
  0
VERTEX
  5
634
  8
0
 10
-8.456481415211403
 20
188.7226834621624
 30
0.0
  0
VERTEX
  5
635
  8
0
 10
-9.035660606928172
 20
188.7138637393835
 30
0.0
  0
VERTEX
  5
636
  8
0
 10
-9.564113345739127
 20
188.6874045710469
 30
0.0
  0
VERTEX
  5
637
  8
0
 10
-10.04183963164427
 20
188.6433059571524
 30
0.0
  0
VERTEX
  5
638
  8
0
 10
-10.4688394646436
 20
188.5815678977002
 30
0.0
  0
VERTEX
  5
639
  8
0
 10
-10.84511284473712
 20
188.5021903926901
 30
0.0
  0
VERTEX
  5
63A
  8
0
 10
-11.0142271149442
 20
188.455886848101
 30
0.0
  0
VERTEX
  5
63B
  8
0
 10
-11.17065977192483
 20
188.4051734421224
 30
0.0
  0
VERTEX
  5
63C
  8
0
 10
-11.31441081567901
 20
188.3500501747543
 30
0.0
  0
VERTEX
  5
63D
  8
0
 10
-11.44548024620673
 20
188.2905170459968
 30
0.0
  0
VERTEX
  5
63E
  8
0
 10
-11.563868063508
 20
188.2265740558498
 30
0.0
  0
VERTEX
  5
63F
  8
0
 10
-11.66957426758281
 20
188.1582212043134
 30
0.0
  0
VERTEX
  5
640
  8
0
 10
-11.85588438782329
 20
188.0127740600248
 30
0.0
  0
VERTEX
  5
641
  8
0
 10
-12.01735315869838
 20
187.8586637560836
 30
0.0
  0
VERTEX
  5
642
  8
0
 10
-12.15398058020806
 20
187.6958902924898
 30
0.0
  0
VERTEX
  5
643
  8
0
 10
-12.26576665235235
 20
187.5244536692433
 30
0.0
  0
VERTEX
  5
644
  8
0
 10
-12.35271137513124
 20
187.3443538863441
 30
0.0
  0
VERTEX
  5
645
  8
0
 10
-12.41481474854474
 20
187.1555909437924
 30
0.0
  0
VERTEX
  5
646
  8
0
 10
-12.45207677259283
 20
186.9581648415879
 30
0.0
  0
VERTEX
  5
647
  8
0
 10
-12.46449744727553
 20
186.7520755797309
 30
0.0
  0
VERTEX
  5
648
  8
0
 10
-12.45353802843786
 20
186.5502135222827
 30
0.0
  0
VERTEX
  5
649
  8
0
 10
-12.42065977192483
 20
186.3587890065846
 30
0.0
  0
VERTEX
  5
64A
  8
0
 10
-12.36586267773645
 20
186.1778020326367
 30
0.0
  0
VERTEX
  5
64B
  8
0
 10
-12.28914674587273
 20
186.007252600439
 30
0.0
  0
VERTEX
  5
64C
  8
0
 10
-12.19051197633365
 20
185.8471407099914
 30
0.0
  0
VERTEX
  5
64D
  8
0
 10
-12.06995836911922
 20
185.697466361294
 30
0.0
  0
VERTEX
  5
64E
  8
0
 10
-11.92748592422944
 20
185.5582295543468
 30
0.0
  0
VERTEX
  5
64F
  8
0
 10
-11.76309464166431
 20
185.4294302891497
 30
0.0
  0
VERTEX
  5
650
  8
0
 10
-11.6452808891593
 20
185.3542017069854
 30
0.0
  0
VERTEX
  5
651
  8
0
 10
-11.51562052676785
 20
185.2838265817349
 30
0.0
  0
VERTEX
  5
652
  8
0
 10
-11.37411355448996
 20
185.2183049133982
 30
0.0
  0
VERTEX
  5
653
  8
0
 10
-11.22075997232563
 20
185.1576367019754
 30
0.0
  0
VERTEX
  5
654
  8
0
 10
-11.05555978027486
 20
185.1018219474664
 30
0.0
  0
VERTEX
  5
655
  8
0
 10
-10.87851297833766
 20
185.0508606498712
 30
0.0
  0
VERTEX
  5
656
  8
0
 10
-10.48887954480392
 20
184.9634984254223
 30
0.0
  0
VERTEX
  5
657
  8
0
 10
-10.05185967172443
 20
184.8955500286287
 30
0.0
  0
VERTEX
  5
658
  8
0
 10
-9.56745335909918
 20
184.8470154594904
 30
0.0
  0
VERTEX
  5
659
  8
0
 10
-9.035660606928172
 20
184.8178947180075
 30
0.0
  0
SEQEND
  5
E92
  8
0
  0
POLYLINE
  5
81
  8
0
 66
     1
 10
0.0
 20
0.0
 30
0.0
 70
     1
  0
VERTEX
  5
65A
  8
0
 10
-3.626822096574131
 20
195.3158698349079
 30
0.0
  0
VERTEX
  5
65B
  8
0
 10
-10.72101047332764
 20
195.3158698349079
 30
0.0
  0
VERTEX
  5
65C
  8
0
 10
-10.72101047332764
 20
196.3913541368451
 30
0.0
  0
VERTEX
  5
65D
  8
0
 10
-9.725686492031711
 20
196.3913541368451
 30
0.0
  0
VERTEX
  5
65E
  8
0
 10
-9.852763562839993
 20
196.478298859624
 30
0.0
  0
VERTEX
  5
65F
  8
0
 10
-9.973473733180676
 20
196.572132359958
 30
0.0
  0
VERTEX
  5
660
  8
0
 10
-10.08781700305375
 20
196.6728546378471
 30
0.0
  0
VERTEX
  5
661
  8
0
 10
-10.19579337245923
 20
196.7804656932913
 30
0.0
  0
VERTEX
  5
662
  8
0
 10
-10.29740284139711
 20
196.8949655262907
 30
0.0
  0
VERTEX
  5
663
  8
0
 10
-10.39264540986738
 20
197.0163541368451
 30
0.0
  0
VERTEX
  5
664
  8
0
 10
-10.48152107787005
 20
197.1446315249547
 30
0.0
  0
VERTEX
  5
665
  8
0
 10
-10.56402984540512
 20
197.2797976906193
 30
0.0
  0
VERTEX
  5
666
  8
0
 10
-10.63839733037506
 20
197.4208088796641
 30
0.0
  0
VERTEX
  5
667
  8
0
 10
-10.70284915068235
 20
197.5666213379139
 30
0.0
  0
VERTEX
  5
668
  8
0
 10
-10.75738530632697
 20
197.7172350653688
 30
0.0
  0
VERTEX
  5
669
  8
0
 10
-10.80200579730893
 20
197.8726500620288
 30
0.0
  0
VERTEX
  5
66A
  8
0
 10
-10.83671062362824
 20
198.0328663278939
 30
0.0
  0
VERTEX
  5
66B
  8
0
 10
-10.86149978528488
 20
198.1978838629641
 30
0.0
  0
VERTEX
  5
66C
  8
0
 10
-10.87637328227887
 20
198.3677026672393
 30
0.0
  0
VERTEX
  5
66D
  8
0
 10
-10.8813311146102
 20
198.5423227407195
 30
0.0
  0
VERTEX
  5
66E
  8
0
 10
-10.87621671915262
 20
198.7349475737188
 30
0.0
  0
VERTEX
  5
66F
  8
0
 10
-10.86087353277987
 20
198.9187004962305
 30
0.0
  0
VERTEX
  5
670
  8
0
 10
-10.83530155549196
 20
199.0935815082546
 30
0.0
  0
VERTEX
  5
671
  8
0
 10
-10.79950078728889
 20
199.259590609791
 30
0.0
  0
VERTEX
  5
672
  8
0
 10
-10.75347122817065
 20
199.4167278008398
 30
0.0
  0
VERTEX
  5
673
  8
0
 10
-10.69721287813725
 20
199.5649930814009
 30
0.0
  0
VERTEX
  5
674
  8
0
 10
-10.63072573718869
 20
199.7043864514744
 30
0.0
  0
VERTEX
  5
675
  8
0
 10
-10.55400980532496
 20
199.8349079110602
 30
0.0
  0
VERTEX
  5
676
  8
0
 10
-10.46810883672109
 20
199.9563487093234
 30
0.0
  0
VERTEX
  5
677
  8
0
 10
-10.37406658555209
 20
200.068500095429
 30
0.0
  0
VERTEX
  5
678
  8
0
 10
-10.27188305181795
 20
200.1713620693769
 30
0.0
  0
VERTEX
  5
679
  8
0
 10
-10.16155823551868
 20
200.2649346311671
 30
0.0
  0
VERTEX
  5
67A
  8
0
 10
-10.04309213665429
 20
200.3492177807997
 30
0.0
  0
VERTEX
  5
67B
  8
0
 10
-9.916484755224765
 20
200.4242115182747
 30
0.0
  0
VERTEX
  5
67C
  8
0
 10
-9.781736091230108
 20
200.4899158435919
 30
0.0
  0
VERTEX
  5
67D
  8
0
 10
-9.638846144670321
 20
200.5463307567516
 30
0.0
  0
VERTEX
  5
67E
  8
0
 10
-9.789303308998978
 20
200.6535243105258
 30
0.0
  0
VERTEX
  5
67F
  8
0
 10
-9.93005355949998
 20
200.7646841301651
 30
0.0
  0
VERTEX
  5
680
  8
0
 10
-10.06109689617333
 20
200.8798102156694
 30
0.0
  0
VERTEX
  5
681
  8
0
 10
-10.18243331901902
 20
200.9989025670388
 30
0.0
  0
VERTEX
  5
682
  8
0
 10
-10.29406282803705
 20
201.1219611842733
 30
0.0
  0
VERTEX
  5
683
  8
0
 10
-10.39598542322743
 20
201.2489860673728
 30
0.0
  0
VERTEX
  5
684
  8
0
 10
-10.48820110459016
 20
201.3799772163374
 30
0.0
  0
VERTEX
  5
685
  8
0
 10
-10.57070987212523
 20
201.5149346311671
 30
0.0
  0
VERTEX
  5
686
  8
0
 10
-10.64351172583265
 20
201.6538583118618
 30
0.0
  0
VERTEX
  5
687
  8
0
 10
-10.70660666571241
 20
201.7967482584216
 30
0.0
  0
VERTEX
  5
688
  8
0
 10
-10.75999469176451
 20
201.9436044708465
 30
0.0
  0
VERTEX
  5
689
  8
0
 10
-10.80367580398896
 20
202.0944269491364
 30
0.0
  0
VERTEX
  5
68A
  8
0
 10
-10.83765000238575
 20
202.2492156932913
 30
0.0
  0
VERTEX
  5
68B
  8
0
 10
-10.86191728695489
 20
202.4079707033114
 30
0.0
  0
VERTEX
  5
68C
  8
0
 10
-10.87647765769637
 20
202.5706919791965
 30
0.0
  0
VERTEX
  5
68D
  8
0
 10
-10.8813311146102
 20
202.7373795209467
 30
0.0
  0
VERTEX
  5
68E
  8
0
 10
-10.8721982655788
 20
202.9936211709133
 30
0.0
  0
VERTEX
  5
68F
  8
0
 10
-10.84479971848462
 20
203.2346240099246
 30
0.0
  0
VERTEX
  5
690
  8
0
 10
-10.79913547332763
 20
203.4603880379807
 30
0.0
  0
VERTEX
  5
691
  8
0
 10
-10.73520553010786
 20
203.6709132550816
 30
0.0
  0
VERTEX
  5
692
  8
0
 10
-10.6530098888253
 20
203.8661996612272
 30
0.0
  0
VERTEX
  5
693
  8
0
 10
-10.55254854947994
 20
204.0462472564176
 30
0.0
  0
VERTEX
  5
694
  8
0
 10
-10.43382151207179
 20
204.2110560406527
 30
0.0
  0
VERTEX
  5
695
  8
0
 10
-10.29682877660085
 20
204.3606260139326
 30
0.0
  0
VERTEX
  5
696
  8
0
 10
-10.1408397151446
 20
204.4937046712473
 30
0.0
  0
VERTEX
  5
697
  8
0
 10
-9.965123699780541
 20
204.6090395075866
 30
0.0
  0
VERTEX
  5
698
  8
0
 10
-9.769680730508664
 20
204.7066305229507
 30
0.0
  0
VERTEX
  5
699
  8
0
 10
-9.55451080732897
 20
204.7864777173394
 30
0.0
  0
VERTEX
  5
69A
  8
0
 10
-9.319613930241463
 20
204.8485810907529
 30
0.0
  0
VERTEX
  5
69B
  8
0
 10
-9.06499009924614
 20
204.8929406431911
 30
0.0
  0
VERTEX
  5
69C
  8
0
 10
-8.790639314343
 20
204.9195563746541
 30
0.0
  0
VERTEX
  5
69D
  8
0
 10
-8.496561575532045
 20
204.9284282851417
 30
0.0
  0
VERTEX
  5
69E
  8
0
 10
-3.62682209657413
 20
204.9284282851417
 30
0.0
  0
VERTEX
  5
69F
  8
0
 10
-3.62682209657413
 20
203.7327035022426
 30
0.0
  0
VERTEX
  5
6A0
  8
0
 10
-8.095759972325633
 20
203.7327035022426
 30
0.0
  0
VERTEX
  5
6A1
  8
0
 10
-8.431222564176
 20
203.7253972230175
 30
0.0
  0
VERTEX
  5
6A2
  8
0
 10
-8.716167453955558
 20
203.7034783853421
 30
0.0
  0
VERTEX
  5
6A3
  8
0
 10
-8.950594641664308
 20
203.6669469892165
 30
0.0
  0
VERTEX
  5
6A4
  8
0
 10
-9.134504127302252
 20
203.6158030346407
 30
0.0
  0
VERTEX
  5
6A5
  8
0
 10
-9.285430981009666
 20
203.5454540032446
 30
0.0
  0
VERTEX
  5
6A6
  8
0
 10
-9.420910272926834
 20
203.4513073766581
 30
0.0
  0
VERTEX
  5
6A7
  8
0
 10
-9.540942003053754
 20
203.3333631548812
 30
0.0
  0
VERTEX
  5
6A8
  8
0
 10
-9.645526171390427
 20
203.1916213379139
 30
0.0
  0
VERTEX
  5
6A9
  8
0
 10
-9.730279010401784
 20
203.0313006966313
 30
0.0
  0
VERTEX
  5
6AA
  8
0
 10
-9.790816752552754
 20
202.8576200019086
 30
0.0
  0
VERTEX
  5
6AB
  8
0
 10
-9.827139397843334
 20
202.6705792537456
 30
0.0
  0
VERTEX
  5
6AC
  8
0
 10
-9.839246946273528
 20
202.4701784521424
 30
0.0
  0
VERTEX
  5
6AD
  8
0
 10
-9.831470977669653
 20
202.2871039698445
 30
0.0
  0
VERTEX
  5
6AE
  8
0
 10
-9.80814307185803
 20
202.1119620192767
 30
0.0
  0
VERTEX
  5
6AF
  8
0
 10
-9.769263228838657
 20
201.944752600439
 30
0.0
  0
VERTEX
  5
6B0
  8
0
 10
-9.714831448611537
 20
201.7854757133314
 30
0.0
  0
VERTEX
  5
6B1
  8
0
 10
-9.644847731176664
 20
201.634131357954
 30
0.0
  0
VERTEX
  5
6B2
  8
0
 10
-9.559312076534049
 20
201.4907195343067
 30
0.0
  0
VERTEX
  5
6B3
  8
0
 10
-9.45822448468368
 20
201.3552402423895
 30
0.0
  0
VERTEX
  5
6B4
  8
0
 10
-9.341584955625564
 20
201.2276934822025
 30
0.0
  0
VERTEX
  5
6B5
  8
0
 10
-9.207827858097174
 20
201.1118367687757
 30
0.0
  0
VERTEX
  5
6B6
  8
0
 10
-9.055387560835985
 20
201.011427617139
 30
0.0
  0
VERTEX
  5
6B7
  8
0
 10
-8.884264063841998
 20
200.9264660272927
 30
0.0
  0
VERTEX
  5
6B8
  8
0
 10
-8.694457367115211
 20
200.8569519992366
 30
0.0
  0
VERTEX
  5
6B9
  8
0
 10
-8.485967470655625
 20
200.8028855329707
 30
0.0
  0
VERTEX
  5
6BA
  8
0
 10
-8.25879437446324
 20
200.7642666284951
 30
0.0
  0
VERTEX
  5
6BB
  8
0
 10
-8.012938078538056
 20
200.7410952858097
 30
0.0
  0
VERTEX
  5
6BC
  8
0
 10
-7.748398582880075
 20
200.7333715049146
 30
0.0
  0
VERTEX
  5
6BD
  8
0
 10
-3.62682209657413
 20
200.7333715049146
 30
0.0
  0
VERTEX
  5
6BE
  8
0
 10
-3.62682209657413
 20
199.5309666952953
 30
0.0
  0
VERTEX
  5
6BF
  8
0
 10
-8.236040533447877
 20
199.5309666952953
 30
0.0
  0
VERTEX
  5
6C0
  8
0
 10
-8.430178810000983
 20
199.5263741769253
 30
0.0
  0
VERTEX
  5
6C1
  8
0
 10
-8.611792036453888
 20
199.5125966218151
 30
0.0
  0
VERTEX
  5
6C2
  8
0
 10
-8.780880212806593
 20
199.4896340299647
 30
0.0
  0
VERTEX
  5
6C3
  8
0
 10
-8.9374433390591
 20
199.4574864013742
 30
0.0
  0
VERTEX
  5
6C4
  8
0
 10
-9.081481415211403
 20
199.4161537360435
 30
0.0
  0
VERTEX
  5
6C5
  8
0
 10
-9.212994441263508
 20
199.3656360339727
 30
0.0
  0
VERTEX
  5
6C6
  8
0
 10
-9.33198241721541
 20
199.3059332951618
 30
0.0
  0
VERTEX
  5
6C7
  8
0
 10
-9.438445343067114
 20
199.2370455196107
 30
0.0
  0
VERTEX
  5
6C8
  8
0
 10
-9.532383218818616
 20
199.1577202023094
 30
0.0
  0
VERTEX
  5
6C9
  8
0
 10
-9.613796044469918
 20
199.0667048382479
 30
0.0
  0
VERTEX
  5
6CA
  8
0
 10
-9.68268382002102
 20
198.9639994274263
 30
0.0
  0
VERTEX
  5
6CB
  8
0
 10
-9.739046545471924
 20
198.8496039698445
 30
0.0
  0
VERTEX
  5
6CC
  8
0
 10
-9.782884220822627
 20
198.7235184655024
 30
0.0
  0
VERTEX
  5
6CD
  8
0
 10
-9.814196846073127
 20
198.5857429144002
 30
0.0
  0
VERTEX
  5
6CE
  8
0
 10
-9.83298442122343
 20
198.4362773165378
 30
0.0
  0
VERTEX
  5
6CF
  8
0
 10
-9.839246946273528
 20
198.2751216719153
 30
0.0
  0
VERTEX
  5
6D0
  8
0
 10
-9.835071929573461
 20
198.1494014815345
 30
0.0
  0
VERTEX
  5
6D1
  8
0
 10
-9.822546879473261
 20
198.0260819257563
 30
0.0
  0
VERTEX
  5
6D2
  8
0
 10
-9.801671795972926
 20
197.9051630045806
 30
0.0
  0
VERTEX
  5
6D3
  8
0
 10
-9.77244667907246
 20
197.7866447180074
 30
0.0
  0
VERTEX
  5
6D4
  8
0
 10
-9.734871528771858
 20
197.6705270660368
 30
0.0
  0
VERTEX
  5
6D5
  8
0
 10
-9.688946345071123
 20
197.5568100486688
 30
0.0
  0
VERTEX
  5
6D6
  8
0
 10
-9.634671127970254
 20
197.4454936659033
 30
0.0
  0
VERTEX
  5
6D7
  8
0
 10
-9.572045877469252
 20
197.3365779177402
 30
0.0
  0
VERTEX
  5
6D8
  8
0
 10
-9.501383719820621
 20
197.2325678141998
 30
0.0
  0
VERTEX
  5
6D9
  8
0
 10
-9.422997781276866
 20
197.135968365302
 30
0.0
  0
VERTEX
  5
6DA
  8
0
 10
-9.336888061837989
 20
197.0467795710468
 30
0.0
  0
VERTEX
  5
6DB
  8
0
 10
-9.243054561503989
 20
196.9650014314343
 30
0.0
  0
VERTEX
  5
6DC
  8
0
 10
-9.141497280274866
 20
196.8906339464644
 30
0.0
  0
VERTEX
  5
6DD
  8
0
 10
-9.032216218150616
 20
196.823677116137
 30
0.0
  0
VERTEX
  5
6DE
  8
0
 10
-8.915211375131243
 20
196.7641309404523
 30
0.0
  0
VERTEX
  5
6DF
  8
0
 10
-8.790482751216746
 20
196.7119954194102
 30
0.0
  0
VERTEX
  5
6E0
  8
0
 10
-8.654794708464575
 20
196.666592112797
 30
0.0
  0
VERTEX
  5
6E1
  8
0
 10
-8.504911608932176
 20
196.6272425803989
 30
0.0
  0
VERTEX
  5
6E2
  8
0
 10
-8.34083345261955
 20
196.5939468222159
 30
0.0
  0
VERTEX
  5
6E3
  8
0
 10
-8.1625602395267
 20
196.5667048382479
 30
0.0
  0
VERTEX
  5
6E4
  8
0
 10
-7.763428643000314
 20
196.5303821929573
 30
0.0
  0
VERTEX
  5
6E5
  8
0
 10
-7.30751681935302
 20
196.5182746445271
 30
0.0
  0
VERTEX
  5
6E6
  8
0
 10
-3.62682209657413
 20
196.5182746445271
 30
0.0
  0
SEQEND
  5
E93
  8
0
  0
POLYLINE
  5
82
  8
0
 66
     1
 10
0.0
 20
0.0
 30
0.0
 70
     1
  0
VERTEX
  5
6E7
  8
0
 10
-3.62682209657413
 20
206.7119954194102
 30
0.0
  0
VERTEX
  5
6E8
  8
0
 10
-10.72101047332763
 20
206.7119954194102
 30
0.0
  0
VERTEX
  5
6E9
  8
0
 10
-10.72101047332763
 20
207.7874797213474
 30
0.0
  0
VERTEX
  5
6EA
  8
0
 10
-9.72568649203171
 20
207.7874797213474
 30
0.0
  0
VERTEX
  5
6EB
  8
0
 10
-9.852763562839993
 20
207.8744244441264
 30
0.0
  0
VERTEX
  5
6EC
  8
0
 10
-9.973473733180674
 20
207.9682579444603
 30
0.0
  0
VERTEX
  5
6ED
  8
0
 10
-10.08781700305375
 20
208.0689802223495
 30
0.0
  0
VERTEX
  5
6EE
  8
0
 10
-10.19579337245923
 20
208.1765912777936
 30
0.0
  0
VERTEX
  5
6EF
  8
0
 10
-10.29740284139711
 20
208.291091110793
 30
0.0
  0
VERTEX
  5
6F0
  8
0
 10
-10.39264540986738
 20
208.4124797213474
 30
0.0
  0
VERTEX
  5
6F1
  8
0
 10
-10.48152107787005
 20
208.540757109457
 30
0.0
  0
VERTEX
  5
6F2
  8
0
 10
-10.56402984540512
 20
208.6759232751217
 30
0.0
  0
VERTEX
  5
6F3
  8
0
 10
-10.63839733037506
 20
208.8169344641664
 30
0.0
  0
VERTEX
  5
6F4
  8
0
 10
-10.70284915068234
 20
208.9627469224163
 30
0.0
  0
VERTEX
  5
6F5
  8
0
 10
-10.75738530632696
 20
209.1133606498711
 30
0.0
  0
VERTEX
  5
6F6
  8
0
 10
-10.80200579730893
 20
209.2687756465312
 30
0.0
  0
VERTEX
  5
6F7
  8
0
 10
-10.83671062362823
 20
209.4289919123962
 30
0.0
  0
VERTEX
  5
6F8
  8
0
 10
-10.86149978528488
 20
209.5940094474664
 30
0.0
  0
VERTEX
  5
6F9
  8
0
 10
-10.87637328227887
 20
209.7638282517416
 30
0.0
  0
VERTEX
  5
6FA
  8
0
 10
-10.8813311146102
 20
209.9384483252219
 30
0.0
  0
VERTEX
  5
6FB
  8
0
 10
-10.87621671915262
 20
210.1310731582212
 30
0.0
  0
VERTEX
  5
6FC
  8
0
 10
-10.86087353277987
 20
210.3148260807329
 30
0.0
  0
VERTEX
  5
6FD
  8
0
 10
-10.83530155549196
 20
210.4897070927569
 30
0.0
  0
VERTEX
  5
6FE
  8
0
 10
-10.79950078728889
 20
210.6557161942933
 30
0.0
  0
VERTEX
  5
6FF
  8
0
 10
-10.75347122817065
 20
210.8128533853421
 30
0.0
  0
VERTEX
  5
700
  8
0
 10
-10.69721287813725
 20
210.9611186659032
 30
0.0
  0
VERTEX
  5
701
  8
0
 10
-10.63072573718869
 20
211.1005120359767
 30
0.0
  0
VERTEX
  5
702
  8
0
 10
-10.55400980532496
 20
211.2310334955625
 30
0.0
  0
VERTEX
  5
703
  8
0
 10
-10.46810883672109
 20
211.3524742938257
 30
0.0
  0
VERTEX
  5
704
  8
0
 10
-10.37406658555209
 20
211.4646256799313
 30
0.0
  0
VERTEX
  5
705
  8
0
 10
-10.27188305181795
 20
211.5674876538792
 30
0.0
  0
VERTEX
  5
706
  8
0
 10
-10.16155823551868
 20
211.6610602156694
 30
0.0
  0
VERTEX
  5
707
  8
0
 10
-10.04309213665429
 20
211.745343365302
 30
0.0
  0
VERTEX
  5
708
  8
0
 10
-9.916484755224761
 20
211.820337102777
 30
0.0
  0
VERTEX
  5
709
  8
0
 10
-9.781736091230105
 20
211.8860414280942
 30
0.0
  0
VERTEX
  5
70A
  8
0
 10
-9.63884614467032
 20
211.9424563412539
 30
0.0
  0
VERTEX
  5
70B
  8
0
 10
-9.789303308998978
 20
212.0496498950281
 30
0.0
  0
VERTEX
  5
70C
  8
0
 10
-9.93005355949998
 20
212.1608097146674
 30
0.0
  0
VERTEX
  5
70D
  8
0
 10
-10.06109689617332
 20
212.2759358001717
 30
0.0
  0
VERTEX
  5
70E
  8
0
 10
-10.18243331901902
 20
212.3950281515412
 30
0.0
  0
VERTEX
  5
70F
  8
0
 10
-10.29406282803705
 20
212.5180867687756
 30
0.0
  0
VERTEX
  5
710
  8
0
 10
-10.39598542322743
 20
212.6451116518751
 30
0.0
  0
VERTEX
  5
711
  8
0
 10
-10.48820110459016
 20
212.7761028008397
 30
0.0
  0
VERTEX
  5
712
  8
0
 10
-10.57070987212523
 20
212.9110602156694
 30
0.0
  0
VERTEX
  5
713
  8
0
 10
-10.64351172583265
 20
213.0499838963642
 30
0.0
  0
VERTEX
  5
714
  8
0
 10
-10.70660666571241
 20
213.1928738429239
 30
0.0
  0
VERTEX
  5
715
  8
0
 10
-10.75999469176451
 20
213.3397300553488
 30
0.0
  0
VERTEX
  5
716
  8
0
 10
-10.80367580398896
 20
213.4905525336387
 30
0.0
  0
VERTEX
  5
717
  8
0
 10
-10.83765000238575
 20
213.6453412777937
 30
0.0
  0
VERTEX
  5
718
  8
0
 10
-10.86191728695489
 20
213.8040962878137
 30
0.0
  0
VERTEX
  5
719
  8
0
 10
-10.87647765769637
 20
213.9668175636988
 30
0.0
  0
VERTEX
  5
71A
  8
0
 10
-10.8813311146102
 20
214.133505105449
 30
0.0
  0
VERTEX
  5
71B
  8
0
 10
-10.8721982655788
 20
214.3897467554156
 30
0.0
  0
VERTEX
  5
71C
  8
0
 10
-10.84479971848462
 20
214.630749594427
 30
0.0
  0
VERTEX
  5
71D
  8
0
 10
-10.79913547332763
 20
214.856513622483
 30
0.0
  0
VERTEX
  5
71E
  8
0
 10
-10.73520553010786
 20
215.0670388395839
 30
0.0
  0
VERTEX
  5
71F
  8
0
 10
-10.6530098888253
 20
215.2623252457295
 30
0.0
  0
VERTEX
  5
720
  8
0
 10
-10.55254854947994
 20
215.4423728409199
 30
0.0
  0
VERTEX
  5
721
  8
0
 10
-10.43382151207179
 20
215.607181625155
 30
0.0
  0
VERTEX
  5
722
  8
0
 10
-10.29682877660085
 20
215.756751598435
 30
0.0
  0
VERTEX
  5
723
  8
0
 10
-10.1408397151446
 20
215.8898302557496
 30
0.0
  0
VERTEX
  5
724
  8
0
 10
-9.965123699780541
 20
216.0051650920889
 30
0.0
  0
VERTEX
  5
725
  8
0
 10
-9.769680730508664
 20
216.102756107453
 30
0.0
  0
VERTEX
  5
726
  8
0
 10
-9.55451080732897
 20
216.1826033018418
 30
0.0
  0
VERTEX
  5
727
  8
0
 10
-9.319613930241463
 20
216.2447066752553
 30
0.0
  0
VERTEX
  5
728
  8
0
 10
-9.06499009924614
 20
216.2890662276935
 30
0.0
  0
VERTEX
  5
729
  8
0
 10
-8.790639314343
 20
216.3156819591564
 30
0.0
  0
VERTEX
  5
72A
  8
0
 10
-8.496561575532045
 20
216.324553869644
 30
0.0
  0
VERTEX
  5
72B
  8
0
 10
-3.626822096574129
 20
216.324553869644
 30
0.0
  0
VERTEX
  5
72C
  8
0
 10
-3.626822096574129
 20
215.1288290867449
 30
0.0
  0
VERTEX
  5
72D
  8
0
 10
-8.09575997232563
 20
215.1288290867449
 30
0.0
  0
VERTEX
  5
72E
  8
0
 10
-8.431222564175998
 20
215.1215228075198
 30
0.0
  0
VERTEX
  5
72F
  8
0
 10
-8.716167453955556
 20
215.0996039698444
 30
0.0
  0
VERTEX
  5
730
  8
0
 10
-8.950594641664308
 20
215.0630725737188
 30
0.0
  0
VERTEX
  5
731
  8
0
 10
-9.13450412730225
 20
215.011928619143
 30
0.0
  0
VERTEX
  5
732
  8
0
 10
-9.285430981009664
 20
214.9415795877469
 30
0.0
  0
VERTEX
  5
733
  8
0
 10
-9.420910272926832
 20
214.8474329611604
 30
0.0
  0
VERTEX
  5
734
  8
0
 10
-9.540942003053754
 20
214.7294887393835
 30
0.0
  0
VERTEX
  5
735
  8
0
 10
-9.645526171390426
 20
214.5877469224162
 30
0.0
  0
VERTEX
  5
736
  8
0
 10
-9.73027901040178
 20
214.4274262811337
 30
0.0
  0
VERTEX
  5
737
  8
0
 10
-9.79081675255275
 20
214.2537455864109
 30
0.0
  0
VERTEX
  5
738
  8
0
 10
-9.827139397843332
 20
214.0667048382479
 30
0.0
  0
VERTEX
  5
739
  8
0
 10
-9.839246946273526
 20
213.8663040366447
 30
0.0
  0
VERTEX
  5
73A
  8
0
 10
-9.831470977669651
 20
213.6832295543468
 30
0.0
  0
VERTEX
  5
73B
  8
0
 10
-9.80814307185803
 20
213.508087603779
 30
0.0
  0
VERTEX
  5
73C
  8
0
 10
-9.769263228838657
 20
213.3408781849413
 30
0.0
  0
VERTEX
  5
73D
  8
0
 10
-9.714831448611536
 20
213.1816012978338
 30
0.0
  0
VERTEX
  5
73E
  8
0
 10
-9.644847731176664
 20
213.0302569424563
 30
0.0
  0
VERTEX
  5
73F
  8
0
 10
-9.559312076534049
 20
212.886845118809
 30
0.0
  0
VERTEX
  5
740
  8
0
 10
-9.45822448468368
 20
212.7513658268919
 30
0.0
  0
VERTEX
  5
741
  8
0
 10
-9.341584955625564
 20
212.6238190667048
 30
0.0
  0
VERTEX
  5
742
  8
0
 10
-9.207827858097174
 20
212.507962353278
 30
0.0
  0
VERTEX
  5
743
  8
0
 10
-9.055387560835985
 20
212.4075532016414
 30
0.0
  0
VERTEX
  5
744
  8
0
 10
-8.884264063841998
 20
212.322591611795
 30
0.0
  0
VERTEX
  5
745
  8
0
 10
-8.694457367115211
 20
212.2530775837389
 30
0.0
  0
VERTEX
  5
746
  8
0
 10
-8.485967470655625
 20
212.199011117473
 30
0.0
  0
VERTEX
  5
747
  8
0
 10
-8.25879437446324
 20
212.1603922129974
 30
0.0
  0
VERTEX
  5
748
  8
0
 10
-8.012938078538056
 20
212.1372208703121
 30
0.0
  0
VERTEX
  5
749
  8
0
 10
-7.748398582880073
 20
212.1294970894169
 30
0.0
  0
VERTEX
  5
74A
  8
0
 10
-3.626822096574129
 20
212.1294970894169
 30
0.0
  0
VERTEX
  5
74B
  8
0
 10
-3.626822096574129
 20
210.9270922797977
 30
0.0
  0
VERTEX
  5
74C
  8
0
 10
-8.236040533447875
 20
210.9270922797977
 30
0.0
  0
VERTEX
  5
74D
  8
0
 10
-8.43017881000098
 20
210.9224997614276
 30
0.0
  0
VERTEX
  5
74E
  8
0
 10
-8.611792036453886
 20
210.9087222063174
 30
0.0
  0
VERTEX
  5
74F
  8
0
 10
-8.780880212806593
 20
210.885759614467
 30
0.0
  0
VERTEX
  5
750
  8
0
 10
-8.937443339059099
 20
210.8536119858765
 30
0.0
  0
VERTEX
  5
751
  8
0
 10
-9.081481415211403
 20
210.8122793205459
 30
0.0
  0
VERTEX
  5
752
  8
0
 10
-9.212994441263508
 20
210.761761618475
 30
0.0
  0
VERTEX
  5
753
  8
0
 10
-9.33198241721541
 20
210.7020588796641
 30
0.0
  0
VERTEX
  5
754
  8
0
 10
-9.438445343067114
 20
210.633171104113
 30
0.0
  0
VERTEX
  5
755
  8
0
 10
-9.532383218818616
 20
210.5538457868117
 30
0.0
  0
VERTEX
  5
756
  8
0
 10
-9.613796044469918
 20
210.4628304227502
 30
0.0
  0
VERTEX
  5
757
  8
0
 10
-9.68268382002102
 20
210.3601250119286
 30
0.0
  0
VERTEX
  5
758
  8
0
 10
-9.739046545471924
 20
210.2457295543468
 30
0.0
  0
VERTEX
  5
759
  8
0
 10
-9.782884220822625
 20
210.1196440500048
 30
0.0
  0
VERTEX
  5
75A
  8
0
 10
-9.814196846073125
 20
209.9818684989025
 30
0.0
  0
VERTEX
  5
75B
  8
0
 10
-9.832984421223426
 20
209.8324029010402
 30
0.0
  0
VERTEX
  5
75C
  8
0
 10
-9.839246946273526
 20
209.6712472564176
 30
0.0
  0
VERTEX
  5
75D
  8
0
 10
-9.83507192957346
 20
209.5455270660368
 30
0.0
  0
VERTEX
  5
75E
  8
0
 10
-9.82254687947326
 20
209.4222075102586
 30
0.0
  0
VERTEX
  5
75F
  8
0
 10
-9.801671795972926
 20
209.3012885890829
 30
0.0
  0
VERTEX
  5
760
  8
0
 10
-9.77244667907246
 20
209.1827703025098
 30
0.0
  0
VERTEX
  5
761
  8
0
 10
-9.734871528771857
 20
209.0666526505391
 30
0.0
  0
VERTEX
  5
762
  8
0
 10
-9.688946345071122
 20
208.9529356331711
 30
0.0
  0
VERTEX
  5
763
  8
0
 10
-9.634671127970252
 20
208.8416192504056
 30
0.0
  0
VERTEX
  5
764
  8
0
 10
-9.57204587746925
 20
208.7327035022426
 30
0.0
  0
VERTEX
  5
765
  8
0
 10
-9.501383719820621
 20
208.6286933987021
 30
0.0
  0
VERTEX
  5
766
  8
0
 10
-9.422997781276866
 20
208.5320939498043
 30
0.0
  0
VERTEX
  5
767
  8
0
 10
-9.336888061837989
 20
208.4429051555492
 30
0.0
  0
VERTEX
  5
768
  8
0
 10
-9.243054561503987
 20
208.3611270159366
 30
0.0
  0
VERTEX
  5
769
  8
0
 10
-9.141497280274862
 20
208.2867595309667
 30
0.0
  0
VERTEX
  5
76A
  8
0
 10
-9.032216218150612
 20
208.2198027006394
 30
0.0
  0
VERTEX
  5
76B
  8
0
 10
-8.915211375131243
 20
208.1602565249547
 30
0.0
  0
VERTEX
  5
76C
  8
0
 10
-8.790482751216746
 20
208.1081210039126
 30
0.0
  0
VERTEX
  5
76D
  8
0
 10
-8.654794708464575
 20
208.0627176972993
 30
0.0
  0
VERTEX
  5
76E
  8
0
 10
-8.504911608932176
 20
208.0233681649012
 30
0.0
  0
VERTEX
  5
76F
  8
0
 10
-8.34083345261955
 20
207.9900724067182
 30
0.0
  0
VERTEX
  5
770
  8
0
 10
-8.162560239526698
 20
207.9628304227502
 30
0.0
  0
VERTEX
  5
771
  8
0
 10
-7.763428643000313
 20
207.9265077774597
 30
0.0
  0
VERTEX
  5
772
  8
0
 10
-7.307516819353019
 20
207.9144002290295
 30
0.0
  0
VERTEX
  5
773
  8
0
 10
-3.626822096574129
 20
207.9144002290295
 30
0.0
  0
SEQEND
  5
E94
  8
0
  0
POLYLINE
  5
83
  8
0
 66
     1
 10
0.0
 20
0.0
 30
0.0
 70
     1
  0
VERTEX
  5
774
  8
0
 10
275.7228691413893
 20
204.4387944077907
 30
0.0
  0
VERTEX
  5
775
  8
0
 10
275.7747524301161
 20
204.5969409873413
 30
0.0
 42
0.39858249374168
  0
VERTEX
  5
776
  8
0
 10
276.6579665638076
 20
202.6724472882038
 30
0.0
 42
0.417627060684054
  0
VERTEX
  5
777
  8
0
 10
278.5368725095025
 20
203.487398065576
 30
0.0
 42
0.0342185976143841
  0
VERTEX
  5
778
  8
0
 10
278.5673477035862
 20
203.5852502250117
 30
0.0
 42
-0.0320554604693088
  0
VERTEX
  5
779
  8
0
 10
278.5973997436366
 20
203.6832331696985
 30
0.0
  0
VERTEX
  5
77A
  8
0
 10
285.4869092600186
 20
218.9621439824271
 30
0.0
 42
-0.1790204825297854
  0
VERTEX
  5
77B
  8
0
 10
286.2246913674613
 20
219.3192233495316
 30
0.0
 42
-0.2048121881096226
  0
VERTEX
  5
77C
  8
0
 10
288.0878250153915
 20
218.7274052484213
 30
0.0
 42
-0.0555018574494059
  0
VERTEX
  5
77D
  8
0
 10
288.3940157754682
 20
218.3976116997302
 30
0.0
 42
-0.0466980558256608
  0
VERTEX
  5
77E
  8
0
 10
288.6706290743655
 20
217.9403963856607
 30
0.0
  0
VERTEX
  5
77F
  8
0
 10
291.1153628582247
 20
212.3873698124247
 30
0.0
  0
VERTEX
  5
780
  8
0
 10
331.1874519523053
 20
215.1811599743861
 30
0.0
  0
VERTEX
  5
781
  8
0
 10
341.0641370774918
 20
223.7680102715582
 30
0.0
 42
-0.2166814074673768
  0
VERTEX
  5
782
  8
0
 10
343.0356145831357
 20
224.3753068391571
 30
0.0
 42
-0.2362902694602566
  0
VERTEX
  5
783
  8
0
 10
344.6186993137374
 20
223.3107140741095
 30
0.0
 42
-0.1948825513703221
  0
VERTEX
  5
784
  8
0
 10
344.6691514165276
 20
222.9241208722028
 30
0.0
 42
-0.0343530301896868
  0
VERTEX
  5
785
  8
0
 10
343.9902971844231
 20
220.901710096471
 30
0.0
 42
-0.0198996271828945
  0
VERTEX
  5
786
  8
0
 10
341.8268411073288
 20
216.2131576439019
 30
0.0
 42
0.0102012924222194
  0
VERTEX
  5
787
  8
0
 10
337.6409855605603
 20
207.5855550400882
 30
0.0
 42
0.399927424688631
  0
VERTEX
  5
788
  8
0
 10
338.3183529205056
 20
205.6052449514695
 30
0.0
 42
0.4061023593357482
  0
VERTEX
  5
789
  8
0
 10
340.3011930308806
 20
206.1994969389765
 30
0.0
  0
VERTEX
  5
78A
  8
0
 10
347.3778918516843
 20
219.8994607377471
 30
0.0
 42
0.039623162134152
  0
VERTEX
  5
78B
  8
0
 10
349.2444714816526
 20
225.3621357113438
 30
0.0
 42
-0.0668765846260653
  0
VERTEX
  5
78C
  8
0
 10
349.7847736953987
 20
226.7008339650374
 30
0.0
 42
-0.0576438565888946
  0
VERTEX
  5
78D
  8
0
 10
350.369330300754
 20
227.498669069188
 30
0.0
 42
-0.0265930872809537
  0
VERTEX
  5
78E
  8
0
 10
351.9042531697602
 20
228.9874508396198
 30
0.0
 42
0.0111282476799692
  0
VERTEX
  5
78F
  8
0
 10
352.8338423026076
 20
229.8349228306805
 30
0.0
 42
-0.2024966913661428
  0
VERTEX
  5
790
  8
0
 10
353.1321832142793
 20
229.9478623655339
 30
0.0
 42
-0.1992425997800537
  0
VERTEX
  5
791
  8
0
 10
353.4251420333218
 20
229.8131372168127
 30
0.0
 42
0.004090073304568
  0
VERTEX
  5
792
  8
0
 10
354.295609697299
 20
228.8873384138977
 30
0.0
 42
-0.1639708238129246
  0
VERTEX
  5
793
  8
0
 10
357.3839908398373
 20
222.2884738595459
 30
0.0
 42
-0.1562476371209018
  0
VERTEX
  5
794
  8
0
 10
355.8888045465038
 20
214.8089229818727
 30
0.0
 42
-0.0224326205762639
  0
VERTEX
  5
795
  8
0
 10
354.6601072559649
 20
212.8144983544157
 30
0.0
 42
-0.0251849446694728
  0
VERTEX
  5
796
  8
0
 10
353.4015859880169
 20
211.1499122077594
 30
0.0
 42
-0.0340800072211769
  0
VERTEX
  5
797
  8
0
 10
352.4248444237792
 20
210.134235375274
 30
0.0
 42
0.0322300872401439
  0
VERTEX
  5
798
  8
0
 10
351.4443558242494
 20
209.1221752893359
 30
0.0
  0
VERTEX
  5
799
  8
0
 10
337.5391268773733
 20
190.5441902853485
 30
0.0
 42
-0.0359479104200111
  0
VERTEX
  5
79A
  8
0
 10
336.1032659906265
 20
188.7405157799147
 30
0.0
 42
-0.1183287064088858
  0
VERTEX
  5
79B
  8
0
 10
333.3852865602473
 20
186.9166353931482
 30
0.0
 42
-0.0908495103562839
  0
VERTEX
  5
79C
  8
0
 10
330.9149549974712
 20
186.481738250308
 30
0.0
 42
-0.0737581053175707
  0
VERTEX
  5
79D
  8
0
 10
327.8705717509892
 20
186.9549035085613
 30
0.0
  0
VERTEX
  5
79E
  8
0
 10
331.4817662095775
 20
193.3046093503247
 30
0.0
  0
VERTEX
  5
79F
  8
0
 10
326.0972612686791
 20
204.7709375339311
 30
0.0
  0
VERTEX
  5
7A0
  8
0
 10
289.9396636418568
 20
202.2500615155267
 30
0.0
  0
VERTEX
  5
7A1
  8
0
 10
273.3765594297973
 20
190.4295962574663
 30
0.0
  0
VERTEX
  5
7A2
  8
0
 10
270.8919644985294
 20
183.8272027600505
 30
0.0
 42
-0.1800041668829208
  0
VERTEX
  5
7A3
  8
0
 10
270.5805102715683
 20
183.7559096449118
 30
0.0
 42
-0.0708745744335601
  0
VERTEX
  5
7A4
  8
0
 10
268.9267480742689
 20
184.2183755988232
 30
0.0
 42
-0.3502392043781627
  0
VERTEX
  5
7A5
  8
0
 10
266.1727749515022
 20
189.4719282524396
 30
0.0
 42
0.0019759228377457
  0
VERTEX
  5
7A6
  8
0
 10
269.2536932075845
 20
205.7553588144202
 30
0.0
  0
VERTEX
  5
7A7
  8
0
 10
272.2428840422469
 20
221.9025621383108
 30
0.0
 42
-0.1361778463556938
  0
VERTEX
  5
7A8
  8
0
 10
275.4532457517703
 20
227.2776167199724
 30
0.0
 42
-0.1326706628961468
  0
VERTEX
  5
7A9
  8
0
 10
281.0941076199627
 20
230.3438322186272
 30
0.0
  0
VERTEX
  5
7AA
  8
0
 10
282.8188896548143
 20
230.623424453489
 30
0.0
  0
VERTEX
  5
7AB
  8
0
 10
283.7877017814787
 20
227.3024586973872
 30
0.0
 42
-0.0127865373694865
  0
VERTEX
  5
7AC
  8
0
 10
284.405536256938
 20
224.3624592384913
 30
0.0
 42
-0.0836082533287381
  0
VERTEX
  5
7AD
  8
0
 10
284.4123515110645
 20
223.8999268157876
 30
0.0
  0
VERTEX
  5
7AE
  8
0
 10
279.1935665470426
 20
214.0148116467431
 30
0.0
 42
0.0232986535809665
  0
VERTEX
  5
7AF
  8
0
 10
277.9037275515151
 20
210.6907163182226
 30
0.0
 42
-0.0060393724870316
  0
SEQEND
  5
E95
  8
0
  0
POLYLINE
  5
84
  8
0
 66
     1
 10
0.0
 20
0.0
 30
0.0
 70
     1
  0
VERTEX
  5
7B0
  8
0
 10
148.6043174652829
 20
142.9495818592564
 30
0.0
 42
-0.0032864531826841
  0
VERTEX
  5
7B1
  8
0
 10
148.532822036668
 20
132.0724063094136
 30
0.0
 42
0.0098596435271899
  0
VERTEX
  5
7B2
  8
0
 10
148.6043174652829
 20
121.1952307595707
 30
0.0
 42
0.974048131429256
  0
VERTEX
  5
7B3
  8
0
 10
151.6236022725512
 20
121.1952307595707
 30
0.0
  0
VERTEX
  5
7B4
  8
0
 10
151.6236022725512
 20
144.832289313615
 30
0.0
 42
-0.1629567874416468
  0
VERTEX
  5
7B5
  8
0
 10
151.942468218926
 20
145.1020218833328
 30
0.0
 42
0.0187711495330373
  0
VERTEX
  5
7B6
  8
0
 10
153.4577657546993
 20
145.7725060280964
 30
0.0
 42
-0.0777344300352484
  0
VERTEX
  5
7B7
  8
0
 10
159.7188744741603
 20
147.7021695990608
 30
0.0
 42
-0.063980261799918
  0
VERTEX
  5
7B8
  8
0
 10
172.7343289528196
 20
147.910668688203
 30
0.0
 42
-0.0489983123351246
  0
VERTEX
  5
7B9
  8
0
 10
176.7955216416526
 20
147.0463862990774
 30
0.0
 42
-0.0429892729117667
  0
VERTEX
  5
7BA
  8
0
 10
181.1638883138741
 20
145.2326923224879
 30
0.0
 42
0.0682568515938971
  0
VERTEX
  5
7BB
  8
0
 10
181.5763674598878
 20
145.0853178544085
 30
0.0
 42
-0.2074880282667654
  0
VERTEX
  5
7BC
  8
0
 10
181.933869099855
 20
144.8322351462699
 30
0.0
  0
VERTEX
  5
7BD
  8
0
 10
181.933869099855
 20
121.1952307595707
 30
0.0
 42
0.974048131429208
  0
VERTEX
  5
7BE
  8
0
 10
184.9531549102223
 20
121.1952307595707
 30
0.0
 42
0.0098596435271879
  0
VERTEX
  5
7BF
  8
0
 10
185.0246500849934
 20
132.0723676901027
 30
0.0
 42
-0.0032864531826556
  0
VERTEX
  5
7C0
  8
0
 10
184.9531549102223
 20
142.9495046206347
 30
0.0
 42
-0.0502652601532559
  0
VERTEX
  5
7C1
  8
0
 10
188.3850580376781
 20
139.8196716505995
 30
0.0
 42
-0.1755471620581342
  0
VERTEX
  5
7C2
  8
0
 10
190.7935763639421
 20
133.8485711098815
 30
0.0
 42
-0.0050851564186052
  0
VERTEX
  5
7C3
  8
0
 10
191.0235971060036
 20
124.8928207773572
 30
0.0
 42
-0.0520371545767706
  0
VERTEX
  5
7C4
  8
0
 10
190.2013647798282
 20
115.6234071144817
 30
0.0
 42
-0.0382608288077401
  0
VERTEX
  5
7C5
  8
0
 10
188.1573382743977
 20
108.2071469630457
 30
0.0
 42
-0.0347604534431902
  0
VERTEX
  5
7C6
  8
0
 10
184.7448824713641
 20
100.4601315463803
 30
0.0
 42
0.0665356487597867
  0
VERTEX
  5
7C7
  8
0
 10
184.7341747387095
 20
100.4309365056871
 30
0.0
 42
-0.2054745291893653
  0
VERTEX
  5
7C8
  8
0
 10
184.7160062609244
 20
100.4056993831362
 30
0.0
  0
VERTEX
  5
7C9
  8
0
 10
168.2827873176525
 20
100.4056993831362
 30
0.0
  0
VERTEX
  5
7CA
  8
0
 10
168.2827873176525
 20
116.2566293974396
 30
0.0
 42
0.9740481314293784
  0
VERTEX
  5
7CB
  8
0
 10
165.2635025103841
 20
116.2566293974396
 30
0.0
  0
VERTEX
  5
7CC
  8
0
 10
165.2635025103841
 20
100.4056993831362
 30
0.0
  0
VERTEX
  5
7CD
  8
0
 10
148.8302825640131
 20
100.4056993831362
 30
0.0
 42
-0.1682592530900292
  0
VERTEX
  5
7CE
  8
0
 10
148.5684051189336
 20
100.7192305401237
 30
0.0
 42
0.0198207916330883
  0
VERTEX
  5
7CF
  8
0
 10
147.9344088431992
 20
102.2099945899496
 30
0.0
 42
-0.0425724159868088
  0
VERTEX
  5
7D0
  8
0
 10
144.3301887466544
 20
111.8835058783158
 30
0.0
 42
-0.0636638984804573
  0
VERTEX
  5
7D1
  8
0
 10
142.4625109095558
 20
124.7272295503076
 30
0.0
 42
-0.0128641320330112
  0
VERTEX
  5
7D2
  8
0
 10
142.4975085922193
 20
128.8544145884921
 30
0.0
 42
-0.0094554892201882
  0
VERTEX
  5
7D3
  8
0
 10
142.7956079828296
 20
134.4612790155265
 30
0.0
 42
-0.1530053867077328
  0
VERTEX
  5
7D4
  8
0
 10
144.6430131148203
 20
139.1451828419572
 30
0.0
 42
-0.0632147369843006
  0
SEQEND
  5
E96
  8
0
  0
POLYLINE
  5
85
  8
0
 66
     1
 10
0.0
 20
0.0
 30
0.0
 70
     1
  0
VERTEX
  5
7D5
  8
0
 10
136.1303336313581
 20
111.3580909952692
 30
0.0
  0
VERTEX
  5
7D6
  8
0
 10
136.1303336313581
 20
89.81256102958561
 30
0.0
  0
VERTEX
  5
7D7
  8
0
 10
82.30243019330011
 20
89.81256102958561
 30
0.0
  0
VERTEX
  5
7D8
  8
0
 10
82.30243019330011
 20
86.75310912971841
 30
0.0
  0
VERTEX
  5
7D9
  8
0
 10
136.1303336313581
 20
86.75310912971841
 30
0.0
  0
VERTEX
  5
7DA
  8
0
 10
136.1303336313581
 20
65.20757916403487
 30
0.0
  0
VERTEX
  5
7DB
  8
0
 10
72.20868548215927
 20
78.82911366257763
 30
0.0
 42
0.1816742148620898
  0
VERTEX
  5
7DC
  8
0
 10
70.62945098731055
 20
78.53116675518554
 30
0.0
 42
0.1767309889149256
  0
VERTEX
  5
7DD
  8
0
 10
69.59880449094332
 20
77.24366155171117
 30
0.0
 42
0.0009017803955968
  0
VERTEX
  5
7DE
  8
0
 10
67.79564080877864
 20
71.86362462401638
 30
0.0
 42
-0.0230491959412894
  0
VERTEX
  5
7DF
  8
0
 10
66.19558519643367
 20
67.70974090480345
 30
0.0
 42
-0.0266107353250698
  0
VERTEX
  5
7E0
  8
0
 10
63.03646168322049
 20
61.44374972237128
 30
0.0
 42
-0.0228078703623521
  0
VERTEX
  5
7E1
  8
0
 10
58.64815846069784
 20
54.53359485514896
 30
0.0
 42
-0.0820300213065909
  0
VERTEX
  5
7E2
  8
0
 10
54.36063702337285
 20
50.15680915128919
 30
0.0
 42
-0.1269277845490056
  0
VERTEX
  5
7E3
  8
0
 10
47.38147616137471
 20
47.37327724341029
 30
0.0
 42
-0.1908562490200137
  0
VERTEX
  5
7E4
  8
0
 10
36.22024697561822
 20
50.22535120514785
 30
0.0
 42
-0.1546837374209308
  0
VERTEX
  5
7E5
  8
0
 10
27.87363788651993
 20
61.51790708140244
 30
0.0
 42
-0.0902960241682123
  0
VERTEX
  5
7E6
  8
0
 10
26.27607038622358
 20
72.12668679408105
 30
0.0
 42
-0.1037754421779765
  0
VERTEX
  5
7E7
  8
0
 10
28.47754743310614
 20
81.22318567222047
 30
0.0
 42
-0.0880096469492177
  0
VERTEX
  5
7E8
  8
0
 10
32.05408737728101
 20
86.23483137934866
 30
0.0
 42
0.3196280362123915
  0
VERTEX
  5
7E9
  8
0
 10
32.64250020708628
 20
89.53084375113878
 30
0.0
 42
0.0896755997331496
  0
VERTEX
  5
7EA
  8
0
 10
31.81052768087758
 20
90.69390113830751
 30
0.0
 42
-0.0891239031349707
  0
VERTEX
  5
7EB
  8
0
 10
28.47754743310614
 20
95.34248448708357
 30
0.0
 42
-0.1037754421779764
  0
VERTEX
  5
7EC
  8
0
 10
26.27607038622358
 20
104.438983365223
 30
0.0
 42
-0.0902960241682121
  0
VERTEX
  5
7ED
  8
0
 10
27.87363788651993
 20
115.0477630779016
 30
0.0
 42
-0.1003463413503404
  0
VERTEX
  5
7EE
  8
0
 10
32.59055824613332
 20
123.1057752919358
 30
0.0
 42
-0.0559983851022128
  0
VERTEX
  5
7EF
  8
0
 10
36.28122995928651
 20
126.4039754851037
 30
0.0
 42
-0.3904058794514011
  0
VERTEX
  5
7F0
  8
0
 10
57.4249476019893
 20
123.7042762668968
 30
0.0
 42
-0.024108985595997
  0
VERTEX
  5
7F1
  8
0
 10
58.84466517857371
 20
121.8412765455394
 30
0.0
 42
-0.0117900127470341
  0
VERTEX
  5
7F2
  8
0
 10
61.46591381961633
 20
117.8350471964962
 30
0.0
 42
-0.0533040177931793
  0
VERTEX
  5
7F3
  8
0
 10
68.06943755627296
 20
104.1402882340011
 30
0.0
 42
-0.010278435858711
  0
VERTEX
  5
7F4
  8
0
 10
69.7596509919928
 20
99.07787165691704
 30
0.0
 42
0.1827994609190267
  0
VERTEX
  5
7F5
  8
0
 10
70.59081954707325
 20
98.01416251128036
 30
0.0
 42
0.0942699935211808
  0
VERTEX
  5
7F6
  8
0
 10
71.33655106080087
 20
97.73523878220422
 30
0.0
 42
0.0859325045694878
  0
VERTEX
  5
7F7
  8
0
 10
72.20868548215927
 20
97.7365564967264
 30
0.0
  0
SEQEND
  5
E97
  8
0
  0
POLYLINE
  5
86
  8
0
 66
     1
 10
0.0
 20
0.0
 30
0.0
 70
     1
  0
VERTEX
  5
7F8
  8
0
 10
198.5332994735982
 20
55.6783095117391
 30
0.0
 42
0.9035705480211491
  0
VERTEX
  5
7F9
  8
0
 10
209.5759689083507
 20
56.03403024814149
 30
0.0
 42
0.9036789634469969
  0
VERTEX
  5
7FA
  8
0
 10
198.6872192386517
 20
57.90466059918047
 30
0.0
 42
0.050597310997538
  0
VERTEX
  5
7FB
  8
0
 10
198.4972100560617
 20
56.79863640631018
 30
0.0
 42
0.050657146423651
  0
SEQEND
  5
E98
  8
0
  0
POLYLINE
  5
87
  8
0
 66
     1
 10
0.0
 20
0.0
 30
0.0
 70
     1
  0
VERTEX
  5
7FC
  8
0
 10
307.3110098931073
 20
38.35657126192277
 30
0.0
 42
0.8641086206780096
  0
VERTEX
  5
7FD
  8
0
 10
307.5606094345781
 20
49.35667125049997
 30
0.0
 42
0.8646467101437871
  0
VERTEX
  5
7FE
  8
0
 10
304.1713712801903
 20
38.88978286391375
 30
0.0
 42
0.0725892412326157
  0
VERTEX
  5
7FF
  8
0
 10
305.7055727034632
 20
38.39299969319261
 30
0.0
 42
0.0728988524673824
  0
SEQEND
  5
E99
  8
0
  0
POLYLINE
  5
88
  8
0
 66
     1
 10
0.0
 20
0.0
 30
0.0
 70
     1
  0
VERTEX
  5
800
  8
0
 10
319.0704655305313
 20
42.25730300889882
 30
0.0
 42
-0.8396845869336719
  0
VERTEX
  5
801
  8
0
 10
294.4628653923593
 20
41.26220384858452
 30
0.0
 42
-0.8400760121414412
  0
VERTEX
  5
802
  8
0
 10
317.2613569658581
 20
50.57108866133363
 30
0.0
 42
-0.0869116203914078
  0
VERTEX
  5
803
  8
0
 10
318.8961776635667
 20
46.56723141628057
 30
0.0
 42
-0.0871428799289612
  0
SEQEND
  5
E9A
  8
0
  0
POLYLINE
  5
89
  8
0
 66
     1
 10
0.0
 20
0.0
 30
0.0
 70
     1
  0
VERTEX
  5
804
  8
0
 10
30.34819327846186
 20
195.3467102362704
 30
0.0
  0
VERTEX
  5
805
  8
0
 10
30.35068999183196
 20
198.3660281458053
 30
0.0
  0
VERTEX
  5
806
  8
0
 10
24.75938114898729
 20
198.3719564607981
 30
0.0
 42
-0.037284655215192
  0
VERTEX
  5
807
  8
0
 10
24.89284830942221
 20
200.12855206795
 30
0.0
 42
-0.2573121713360492
  0
VERTEX
  5
808
  8
0
 10
26.10190646397129
 20
201.7056350918174
 30
0.0
 42
-0.0519572266061981
  0
VERTEX
  5
809
  8
0
 10
26.50201674910513
 20
201.8334531896545
 30
0.0
 42
-0.0434448958062249
  0
VERTEX
  5
80A
  8
0
 10
27.00041562225424
 20
201.8928188466196
 30
0.0
  0
VERTEX
  5
80B
  8
0
 10
30.35411256556387
 20
201.8885897813049
 30
0.0
 42
0.1898038097591266
  0
VERTEX
  5
80C
  8
0
 10
30.68278761540462
 20
202.2991442622285
 30
0.0
 42
-0.074879463196722
  0
VERTEX
  5
80D
  8
0
 10
31.10602412100089
 20
203.1766107775732
 30
0.0
 42
-0.1077836790472993
  0
VERTEX
  5
80E
  8
0
 10
34.52216051707913
 20
206.4050570565542
 30
0.0
 42
-0.1134805432319883
  0
VERTEX
  5
80F
  8
0
 10
38.77015115541894
 20
207.7959660859794
 30
0.0
  0
VERTEX
  5
810
  8
0
 10
81.91209227962827
 20
207.7628377389482
 30
0.0
  0
VERTEX
  5
811
  8
0
 10
81.05252773272227
 20
201.6907525811727
 30
0.0
  0
VERTEX
  5
812
  8
0
 10
84.0420405621585
 20
201.2675571571953
 30
0.0
  0
VERTEX
  5
813
  8
0
 10
84.96108286019589
 20
207.7597873149392
 30
0.0
  0
VERTEX
  5
814
  8
0
 10
86.19501397875744
 20
207.7585525000905
 30
0.0
  0
VERTEX
  5
815
  8
0
 10
93.7721217677984
 20
191.7708288742996
 30
0.0
  0
VERTEX
  5
816
  8
0
 10
121.8396338070784
 20
191.742853446747
 30
0.0
  0
VERTEX
  5
817
  8
0
 10
121.8327104178938
 20
184.4752047034322
 30
0.0
 42
0.404625194016246
  0
VERTEX
  5
818
  8
0
 10
123.3382713160675
 20
183.0149904508023
 30
0.0
 42
0.4036847289767638
  0
VERTEX
  5
819
  8
0
 10
124.8520273243297
 20
184.4717781173043
 30
0.0
 42
0.010855251989916
  0
VERTEX
  5
81A
  8
0
 10
124.9495044014737
 20
190.7575796347921
 30
0.0
 42
-0.0018091395801126
  0
VERTEX
  5
81B
  8
0
 10
124.8845006477246
 20
215.9029017302475
 30
0.0
  0
VERTEX
  5
81C
  8
0
 10
180.7922054439265
 20
211.8345739997709
 30
0.0
 42
0.0883563767709119
  0
VERTEX
  5
81D
  8
0
 10
181.160682715844
 20
212.0153604434808
 30
0.0
 42
0.0142368892827543
  0
VERTEX
  5
81E
  8
0
 10
183.1564803986849
 20
213.5670333808969
 30
0.0
 42
0.0932940902849288
  0
VERTEX
  5
81F
  8
0
 10
188.9790165903852
 20
220.5443510236787
 30
0.0
 42
0.0373437302698205
  0
VERTEX
  5
820
  8
0
 10
191.3738986277307
 20
225.7018727647815
 30
0.0
 42
-0.0330994494236951
  0
VERTEX
  5
821
  8
0
 10
192.916524027123
 20
229.0991157623401
 30
0.0
 42
-0.0968359664833913
  0
VERTEX
  5
822
  8
0
 10
196.4367123659403
 20
233.4036920041735
 30
0.0
 42
-0.0961227857834224
  0
VERTEX
  5
823
  8
0
 10
201.7058211440613
 20
236.2862022311012
 30
0.0
 42
-0.0958376383203815
  0
VERTEX
  5
824
  8
0
 10
207.6876227540921
 20
236.9943398405875
 30
0.0
 42
-0.0802981587097995
  0
VERTEX
  5
825
  8
0
 10
211.8045971674556
 20
236.0151198098639
 30
0.0
 42
-0.0955415645972419
  0
VERTEX
  5
826
  8
0
 10
220.2720151310827
 20
230.4157392228628
 30
0.0
 42
-0.0900458530925044
  0
VERTEX
  5
827
  8
0
 10
225.7101661798041
 20
222.7402907169181
 30
0.0
 42
-0.0899075754424142
  0
VERTEX
  5
828
  8
0
 10
228.1091175498059
 20
213.6299098744184
 30
0.0
 42
-0.026513511286511
  0
VERTEX
  5
829
  8
0
 10
228.2397644394011
 20
208.4318179386896
 30
0.0
 42
0.0067264702242551
  0
VERTEX
  5
82A
  8
0
 10
228.1647165313128
 20
203.2326260597972
 30
0.0
  0
VERTEX
  5
82B
  8
0
 10
170.0146030162365
 20
203.2913715486706
 30
0.0
  0
VERTEX
  5
82C
  8
0
 10
170.0121143276583
 20
200.2720536391358
 30
0.0
  0
VERTEX
  5
82D
  8
0
 10
226.9915992917288
 20
200.2144807729742
 30
0.0
 42
-0.0491571879135949
  0
VERTEX
  5
82E
  8
0
 10
221.5742140256585
 20
192.7798518425985
 30
0.0
 42
-0.1340152145955832
  0
VERTEX
  5
82F
  8
0
 10
214.9931720777531
 20
188.5018576081327
 30
0.0
 42
-0.0207221871721054
  0
VERTEX
  5
830
  8
0
 10
211.320426501405
 20
187.4912143916661
 30
0.0
 42
0.0055754467208328
  0
VERTEX
  5
831
  8
0
 10
204.446218376991
 20
185.8217978812336
 30
0.0
  0
VERTEX
  5
832
  8
0
 10
205.3203118095749
 20
182.8032202587486
 30
0.0
 42
0.2151765171490031
  0
VERTEX
  5
833
  8
0
 10
205.6536468796517
 20
182.7430670387378
 30
0.0
 42
-0.0887882509874457
  0
VERTEX
  5
834
  8
0
 10
206.9971519352063
 20
182.8348910115999
 30
0.0
 42
-0.7134256046358001
  0
VERTEX
  5
835
  8
0
 10
209.7953494067159
 20
170.4706934931612
 30
0.0
 42
-0.7134511687720768
  0
VERTEX
  5
836
  8
0
 10
199.9813844930405
 20
178.4947594635031
 30
0.0
 42
-0.1075647864277244
  0
VERTEX
  5
837
  8
0
 10
200.2002349989809
 20
178.8374823911908
 30
0.0
 42
0.2649137347672694
  0
VERTEX
  5
838
  8
0
 10
200.3066074234455
 20
179.2299609975208
 30
0.0
  0
VERTEX
  5
839
  8
0
 10
194.8316279697247
 20
183.3730266239657
 30
0.0
  0
VERTEX
  5
83A
  8
0
 10
187.8242782150841
 20
180.7004243457642
 30
0.0
 42
-0.0193977327561754
  0
VERTEX
  5
83B
  8
0
 10
174.8080628871539
 20
176.5856103580649
 30
0.0
 42
-0.0161775433111095
  0
VERTEX
  5
83C
  8
0
 10
158.8915182521226
 20
172.7740470353777
 30
0.0
 42
-0.0207729746205962
  0
VERTEX
  5
83D
  8
0
 10
151.9635237855182
 20
171.6478118290329
 30
0.0
 42
-0.0246554481471073
  0
VERTEX
  5
83E
  8
0
 10
146.0634230123904
 20
171.2322768759485
 30
0.0
  0
VERTEX
  5
83F
  8
0
 10
107.1039662953831
 20
171.2713375503684
 30
0.0
  0
VERTEX
  5
840
  8
0
 10
107.100368179329
 20
168.2520146253387
 30
0.0
  0
VERTEX
  5
841
  8
0
 10
131.6709597993273
 20
168.2277506640253
 30
0.0
 42
-0.0987833881448671
  0
VERTEX
  5
842
  8
0
 10
130.2830418128795
 20
164.5286062568934
 30
0.0
 42
-0.2331820062606045
  0
VERTEX
  5
843
  8
0
 10
124.8284234021475
 20
161.1335126574939
 30
0.0
  0
VERTEX
  5
844
  8
0
 10
86.27156046219312
 20
161.1719313485644
 30
0.0
  0
VERTEX
  5
845
  8
0
 10
86.29726387054795
 20
186.8921777229211
 30
0.0
  0
VERTEX
  5
846
  8
0
 10
83.27794596101312
 20
186.8946613960044
 30
0.0
  0
VERTEX
  5
847
  8
0
 10
83.25223753716338
 20
161.1755344801133
 30
0.0
  0
VERTEX
  5
848
  8
0
 10
73.85828376682662
 20
161.1846777273485
 30
0.0
 42
-0.3918620157688514
  0
VERTEX
  5
849
  8
0
 10
72.81968329591486
 20
162.2146789751123
 30
0.0
 42
-0.0109155308724336
  0
VERTEX
  5
84A
  8
0
 10
72.74553101787542
 20
165.7821853111088
 30
0.0
 42
0.00093572562652
  0
VERTEX
  5
84B
  8
0
 10
65.20745534479798
 20
165.7680781575937
 30
0.0
 42
-0.0611557730130532
  0
VERTEX
  5
84C
  8
0
 10
59.0030466025525
 20
166.5062360387907
 30
0.0
 42
-0.2265739387460719
  0
VERTEX
  5
84D
  8
0
 10
32.35671009605502
 20
188.328720274976
 30
0.0
  0
VERTEX
  5
84E
  8
0
 10
30.91533641587754
 20
191.8247013083108
 30
0.0
  0
VERTEX
  5
84F
  8
0
 10
26.98996433394449
 20
191.8283766629866
 30
0.0
 42
-0.1903432711095162
  0
VERTEX
  5
850
  8
0
 10
25.43007455490311
 20
192.5063694866098
 30
0.0
 42
-0.19043138481338
  0
VERTEX
  5
851
  8
0
 10
24.75512500000002
 20
194.0667810107186
 30
0.0
 42
0.0243160585288847
  0
VERTEX
  5
852
  8
0
 10
24.67155084844672
 20
195.1025878851876
 30
0.0
 42
-0.2330177333054931
  0
VERTEX
  5
853
  8
0
 10
24.75684531475684
 20
195.3526385512633
 30
0.0
  0
SEQEND
  5
E9B
  8
0
  0
POLYLINE
  5
8A
  8
0
 66
     1
 10
0.0
 20
0.0
 30
0.0
 70
     1
  0
VERTEX
  5
854
  8
0
 10
343.0127113123726
 20
100.3302256606268
 30
0.0
  0
VERTEX
  5
855
  8
0
 10
339.9937224193044
 20
100.3261751469311
 30
0.0
  0
VERTEX
  5
856
  8
0
 10
340.0182873103129
 20
80.65825087417574
 30
0.0
  0
VERTEX
  5
857
  8
0
 10
304.9819316591398
 20
80.6147464712586
 30
0.0
  0
VERTEX
  5
858
  8
0
 10
304.9585504249319
 20
100.2820478195452
 30
0.0
  0
VERTEX
  5
859
  8
0
 10
301.9392666207625
 20
100.2791087395234
 30
0.0
  0
VERTEX
  5
85A
  8
0
 10
301.9626478549704
 20
80.61117543887715
 30
0.0
  0
VERTEX
  5
85B
  8
0
 10
283.272623716212
 20
80.60175032082756
 30
0.0
 42
-0.0437858029014001
  0
VERTEX
  5
85C
  8
0
 10
278.5971925398549
 20
81.3961938720201
 30
0.0
 42
-0.0667752562997158
  0
VERTEX
  5
85D
  8
0
 10
269.5142726386369
 20
85.12106355033899
 30
0.0
 42
-0.09122769238675
  0
VERTEX
  5
85E
  8
0
 10
259.6017870745962
 20
93.5465001077891
 30
0.0
 42
-0.0929899134610081
  0
VERTEX
  5
85F
  8
0
 10
253.4931266540809
 20
104.7572395194478
 30
0.0
 42
-0.2390665659254324
  0
VERTEX
  5
860
  8
0
 10
254.4890739650376
 20
111.0955653076049
 30
0.0
 42
-0.2325928173144737
  0
VERTEX
  5
861
  8
0
 10
260.2954277479309
 20
114.1818459885243
 30
0.0
  0
VERTEX
  5
862
  8
0
 10
305.4180881250838
 20
114.1639587274494
 30
0.0
 42
-0.1907979414318712
  0
VERTEX
  5
863
  8
0
 10
305.6626299991192
 20
113.8149161487728
 30
0.0
 42
0.0603937364741343
  0
VERTEX
  5
864
  8
0
 10
306.2508288749237
 20
112.2268033554734
 30
0.0
 42
0.1141133397608917
  0
VERTEX
  5
865
  8
0
 10
310.7826683896362
 20
106.8746662021265
 30
0.0
 42
0.1303668550699509
  0
VERTEX
  5
866
  8
0
 10
316.5019628209897
 20
104.579119458979
 30
0.0
 42
0.1283089692081217
  0
VERTEX
  5
867
  8
0
 10
325.3912588212992
 20
105.766688834396
 30
0.0
 42
0.1889249476462411
  0
VERTEX
  5
868
  8
0
 10
338.8681135736654
 20
118.6138225706822
 30
0.0
 42
0.0463418928636149
  0
VERTEX
  5
869
  8
0
 10
339.7341562454184
 20
121.0370145383712
 30
0.0
 42
-0.2173918678969098
  0
VERTEX
  5
86A
  8
0
 10
340.1426355994421
 20
121.5434334190883
 30
0.0
 42
-0.0581195276150286
  0
VERTEX
  5
86B
  8
0
 10
340.22204336674
 20
121.5722226703812
 30
0.0
 42
-0.0486253765320795
  0
VERTEX
  5
86C
  8
0
 10
340.3219875647744
 20
121.5857496791724
 30
0.0
  0
VERTEX
  5
86D
  8
0
 10
343.0140574712086
 20
121.5857496791724
 30
0.0
  0
VERTEX
  5
86E
  8
0
 10
343.0140574712086
 20
108.5854173284675
 30
0.0
  0
VERTEX
  5
86F
  8
0
 10
349.7458025887528
 20
108.5854173284675
 30
0.0
  0
VERTEX
  5
870
  8
0
 10
349.7753869870751
 20
80.67000518806512
 30
0.0
  0
VERTEX
  5
871
  8
0
 10
343.0375701113833
 20
80.66229536927747
 30
0.0
  0
SEQEND
  5
E9C
  8
0
  0
POLYLINE
  5
8B
  8
0
 66
     1
 10
0.0
 20
0.0
 30
0.0
 70
     1
  0
VERTEX
  5
872
  8
0
 10
76.46799997265612
 20
127.6594495678548
 30
0.0
 42
-0.2406455917305466
  0
VERTEX
  5
873
  8
0
 10
76.57300755463335
 20
127.8649936640611
 30
0.0
 42
0.0276576742860029
  0
VERTEX
  5
874
  8
0
 10
77.27763755100639
 20
128.4365232667485
 30
0.0
 42
-0.0793904837912971
  0
VERTEX
  5
875
  8
0
 10
79.5133973765274
 20
129.8959885034996
 30
0.0
 42
-0.075470582512902
  0
VERTEX
  5
876
  8
0
 10
82.21922116942854
 20
130.6425892604038
 30
0.0
 42
0.3649276724408386
  0
VERTEX
  5
877
  8
0
 10
82.25443422168343
 20
130.6802060634766
 30
0.0
 42
-0.0715441126554131
  0
VERTEX
  5
878
  8
0
 10
82.97883733412424
 20
134.3396497792515
 30
0.0
 42
-0.1191757047139322
  0
VERTEX
  5
879
  8
0
 10
85.34500903434403
 20
137.9868539770807
 30
0.0
 42
-0.285081615800072
  0
VERTEX
  5
87A
  8
0
 10
95.76336955042589
 20
140.1272940780225
 30
0.0
 42
-0.2848724318279656
  0
VERTEX
  5
87B
  8
0
 10
102.3133344611418
 20
131.7390348231548
 30
0.0
 42
-0.0648778872696141
  0
VERTEX
  5
87C
  8
0
 10
102.2944137207149
 20
130.8657388354214
 30
0.0
 42
0.2298349866385019
  0
VERTEX
  5
87D
  8
0
 10
102.3597469138254
 20
130.6549724122549
 30
0.0
 42
0.2162736047401316
  0
VERTEX
  5
87E
  8
0
 10
102.5898903930933
 20
130.5597244861093
 30
0.0
 42
-0.069363508176871
  0
VERTEX
  5
87F
  8
0
 10
103.5725402741657
 20
130.4562460174699
 30
0.0
 42
-0.0760538160318874
  0
VERTEX
  5
880
  8
0
 10
106.0707560525772
 20
129.4140082257157
 30
0.0
 42
-0.0765925160245939
  0
VERTEX
  5
881
  8
0
 10
108.1268204265137
 20
127.6824154055545
 30
0.0
 42
-0.1814448841135715
  0
VERTEX
  5
882
  8
0
 10
108.1354382108493
 20
127.6594495678548
 30
0.0
 42
-0.0011641175573719
  0
VERTEX
  5
883
  8
0
 10
108.1279831468598
 20
124.4574302187507
 30
0.0
 42
0.0011641175573675
  0
VERTEX
  5
884
  8
0
 10
108.1205280828702
 20
121.2554108696466
 30
0.0
 42
-0.4142135623731604
  0
VERTEX
  5
885
  8
0
 10
108.1005280828702
 20
121.2354108696466
 30
0.0
  0
VERTEX
  5
886
  8
0
 10
93.8113619969364
 20
121.2554108696466
 30
0.0
  0
VERTEX
  5
887
  8
0
 10
93.8113619969364
 20
126.6128501937705
 30
0.0
 42
0.9740481314292373
  0
VERTEX
  5
888
  8
0
 10
90.79207718966802
 20
126.6128501937705
 30
0.0
  0
VERTEX
  5
889
  8
0
 10
90.79207718966802
 20
121.2554108696466
 30
0.0
  0
VERTEX
  5
88A
  8
0
 10
76.50291010063523
 20
121.2354108696466
 30
0.0
 42
-0.4142135623731604
  0
VERTEX
  5
88B
  8
0
 10
76.48291010063524
 20
121.2554108696466
 30
0.0
 42
0.0011641175572876
  0
VERTEX
  5
88C
  8
0
 10
76.47545503664567
 20
124.4574302187507
 30
0.0
 42
-0.0011641175573808
  0
SEQEND
  5
E9D
  8
0
  0
POLYLINE
  5
8C
  8
0
 66
     1
 10
0.0
 20
0.0
 30
0.0
 70
     1
  0
VERTEX
  5
88D
  8
0
 10
297.0463975548772
 20
149.7403856831373
 30
0.0
  0
VERTEX
  5
88E
  8
0
 10
304.8741737613167
 20
149.7403856831373
 30
0.0
 42
0.9740481314291513
  0
VERTEX
  5
88F
  8
0
 10
304.8741737613167
 20
152.7596714935046
 30
0.0
  0
VERTEX
  5
890
  8
0
 10
297.0463975548772
 20
152.7596714935046
 30
0.0
  0
VERTEX
  5
891
  8
0
 10
297.0463975548772
 20
156.2821699337683
 30
0.0
  0
VERTEX
  5
892
  8
0
 10
304.8741737613167
 20
156.2821699337683
 30
0.0
  0
VERTEX
  5
893
  8
0
 10
305.3214756600671
 20
158.5186774213224
 30
0.0
  0
VERTEX
  5
894
  8
0
 10
307.3119661002095
 20
158.5186774213224
 30
0.0
 42
-0.2582291867693983
  0
VERTEX
  5
895
  8
0
 10
310.3698086816577
 20
156.6963817026165
 30
0.0
 42
-0.2327222320487004
  0
VERTEX
  5
896
  8
0
 10
311.0467513814636
 20
147.1299208883129
 30
0.0
 42
-0.1215162198858353
  0
VERTEX
  5
897
  8
0
 10
309.3173306943564
 20
144.7505206499411
 30
0.0
 42
-0.1686628848441951
  0
VERTEX
  5
898
  8
0
 10
307.3119600816156
 20
143.9813225786775
 30
0.0
  0
VERTEX
  5
899
  8
0
 10
305.3214756600671
 20
143.9813797553195
 30
0.0
  0
VERTEX
  5
89A
  8
0
 10
304.8741737613167
 20
146.2178862397747
 30
0.0
  0
VERTEX
  5
89B
  8
0
 10
297.0463975548772
 20
146.2178862397747
 30
0.0
  0
SEQEND
  5
E9E
  8
0
  0
POLYLINE
  5
8D
  8
0
 66
     1
 10
0.0
 20
0.0
 30
0.0
 70
     1
  0
VERTEX
  5
89C
  8
0
 10
79.21926863496708
 20
36.53652797398446
 30
0.0
  0
VERTEX
  5
89D
  8
0
 10
71.39149343162649
 20
36.53651393059864
 30
0.0
  0
VERTEX
  5
89E
  8
0
 10
71.39148741303268
 20
40.05902741734702
 30
0.0
 42
-0.0048734391232831
  0
VERTEX
  5
89F
  8
0
 10
77.78129879284137
 20
39.99674522458191
 30
0.0
 42
0.0318620940871965
  0
VERTEX
  5
8A0
  8
0
 10
79.37773135972795
 20
40.06736798311296
 30
0.0
 42
0.3980994848655803
  0
VERTEX
  5
8A1
  8
0
 10
80.70702263644779
 20
41.62916040291321
 30
0.0
 42
0.3912959436812158
  0
VERTEX
  5
8A2
  8
0
 10
79.21926061017518
 20
43.0783122246154
 30
0.0
  0
VERTEX
  5
8A3
  8
0
 10
71.39148139443876
 20
43.0783122246154
 30
0.0
  0
VERTEX
  5
8A4
  8
0
 10
71.39147537584483
 20
46.60079662149327
 30
0.0
  0
VERTEX
  5
8A5
  8
0
 10
75.03698183826486
 20
46.60080364318613
 30
0.0
  0
VERTEX
  5
8A6
  8
0
 10
79.2192515822843
 20
46.60081166797802
 30
0.0
  0
VERTEX
  5
8A7
  8
0
 10
79.2192435574924
 20
51.0626440956175
 30
0.0
 42
-0.0608940993164143
  0
VERTEX
  5
8A8
  8
0
 10
85.51435868981486
 20
50.29312715209576
 30
0.0
 42
-0.1355528920849262
  0
VERTEX
  5
8A9
  8
0
 10
94.82266245647882
 20
45.05293178962218
 30
0.0
 42
-0.0243523180823962
  0
VERTEX
  5
8AA
  8
0
 10
95.71608639871103
 20
44.07427212746763
 30
0.0
 42
0.0081160134812573
  0
VERTEX
  5
8AB
  8
0
 10
96.57727462415517
 20
43.06712967714664
 30
0.0
 42
-0.0049080825195714
  0
VERTEX
  5
8AC
  8
0
 10
89.73343504838559
 20
43.13431155428661
 30
0.0
 42
0.0318967718620413
  0
VERTEX
  5
8AD
  8
0
 10
88.02356153287461
 20
43.0587891113807
 30
0.0
 42
0.3980994848655803
  0
VERTEX
  5
8AE
  8
0
 10
86.69427025615477
 20
41.49699669158046
 30
0.0
 42
0.3912959436812158
  0
VERTEX
  5
8AF
  8
0
 10
88.18203228242737
 20
40.04784486987826
 30
0.0
 42
0.0098596435271748
  0
VERTEX
  5
8B0
  8
0
 10
92.37189197490596
 20
40.02030501698381
 30
0.0
 42
-0.0032864531826902
  0
VERTEX
  5
8B1
  8
0
 10
96.56175166738456
 20
40.04784486987826
 30
0.0
 42
-0.0303299078178152
  0
VERTEX
  5
8B2
  8
0
 10
93.530954368683
 20
36.98532510395945
 30
0.0
 42
-0.0865596979529715
  0
VERTEX
  5
8B3
  8
0
 10
88.02196027792851
 20
33.55234826181492
 30
0.0
 42
-0.0496612403008945
  0
VERTEX
  5
8B4
  8
0
 10
84.56246587893217
 20
32.53750796740555
 30
0.0
 42
-0.039985754535742
  0
VERTEX
  5
8B5
  8
0
 10
80.11387845106174
 20
32.06339964869103
 30
0.0
 42
0.0579028372412114
  0
VERTEX
  5
8B6
  8
0
 10
79.52896132732407
 20
31.97982526914703
 30
0.0
 42
-0.2668405688265408
  0
VERTEX
  5
8B7
  8
0
 10
79.21927665975886
 20
32.06351299887616
 30
0.0
  0
SEQEND
  5
E9F
  8
0
  0
POLYLINE
  5
8E
  8
0
 66
     1
 10
0.0
 20
0.0
 30
0.0
 70
     1
  0
VERTEX
  5
8B8
  8
0
 10
109.2386713192623
 20
35.32039754492657
 30
0.0
  0
VERTEX
  5
8B9
  8
0
 10
112.2479722823472
 20
35.27577067424684
 30
0.0
  0
VERTEX
  5
8BA
  8
0
 10
112.2479662637534
 20
38.88752385896893
 30
0.0
 42
-0.0084760739867788
  0
VERTEX
  5
8BB
  8
0
 10
117.6297412713919
 20
38.79628465770529
 30
0.0
 42
0.0646368749230802
  0
VERTEX
  5
8BC
  8
0
 10
118.9709725175148
 20
38.92434440539903
 30
0.0
 42
0.3813110969952654
  0
VERTEX
  5
8BD
  8
0
 10
120.1223208317445
 20
40.54417245456949
 30
0.0
 42
0.3746478424941772
  0
VERTEX
  5
8BE
  8
0
 10
118.6395875996439
 20
41.9068086662373
 30
0.0
  0
VERTEX
  5
8BF
  8
0
 10
112.2479612482585
 20
41.9068086662373
 30
0.0
  0
VERTEX
  5
8C0
  8
0
 10
112.2479542265656
 20
45.50738030658962
 30
0.0
  0
VERTEX
  5
8C1
  8
0
 10
109.2386622913714
 20
45.46834470964424
 30
0.0
  0
VERTEX
  5
8C2
  8
0
 10
109.2386502541836
 20
49.89114053723941
 30
0.0
 42
-0.0616183742927611
  0
VERTEX
  5
8C3
  8
0
 10
115.5908547403645
 20
49.10533925603296
 30
0.0
 42
-0.1369223628510043
  0
VERTEX
  5
8C4
  8
0
 10
124.962829046492
 20
43.76027130219015
 30
0.0
 42
-0.0309562040889614
  0
VERTEX
  5
8C5
  8
0
 10
126.6974885004727
 20
41.77623353711659
 30
0.0
 42
-0.3366719014629079
  0
VERTEX
  5
8C6
  8
0
 10
126.7166489499836
 20
39.0548598283079
 30
0.0
 42
-0.1542531869527475
  0
VERTEX
  5
8C7
  8
0
 10
116.9911633340408
 20
32.07882795462116
 30
0.0
 42
-0.0725101035080603
  0
VERTEX
  5
8C8
  8
0
 10
110.1332841446539
 20
30.89189609031288
 30
0.0
 42
0.0577509214044038
  0
VERTEX
  5
8C9
  8
0
 10
109.5483644410605
 20
30.8082838016601
 30
0.0
 42
-0.2667763446324623
  0
VERTEX
  5
8CA
  8
0
 10
109.23868335645
 20
30.89201044359705
 30
0.0
  0
SEQEND
  5
EA0
  8
0
  0
POLYLINE
  5
8F
  8
0
 66
     1
 10
0.0
 20
0.0
 30
0.0
 70
     1
  0
VERTEX
  5
8CB
  8
0
 10
200.4715817249557
 20
44.96042818829044
 30
0.0
 42
0.1138857638238425
  0
VERTEX
  5
8CC
  8
0
 10
199.953178158498
 20
46.53737160708562
 30
0.0
 42
0.0969626469739128
  0
VERTEX
  5
8CD
  8
0
 10
198.6464257849157
 20
47.97505715718796
 30
0.0
 42
-0.0725377110247188
  0
VERTEX
  5
8CE
  8
0
 10
195.9532301160058
 20
50.66380320376891
 30
0.0
 42
-0.1677283324943721
  0
VERTEX
  5
8CF
  8
0
 10
194.0427705601351
 20
56.64764814163021
 30
0.0
 42
-0.1677283324943779
  0
VERTEX
  5
8D0
  8
0
 10
196.2284994240194
 20
62.53140531064726
 30
0.0
 42
-0.0722470278231848
  0
VERTEX
  5
8D1
  8
0
 10
199.0458086421223
 20
65.0961442067453
 30
0.0
 42
0.1391483265303301
  0
VERTEX
  5
8D2
  8
0
 10
200.6517741850644
 20
67.00275794316582
 30
0.0
 42
0.1469076991165761
  0
VERTEX
  5
8D3
  8
0
 10
200.9626706137722
 20
69.3485696905762
 30
0.0
 42
0.0144360764344181
  0
VERTEX
  5
8D4
  8
0
 10
200.0776109688125
 20
73.97969524197727
 30
0.0
 42
-0.0406946518196383
  0
VERTEX
  5
8D5
  8
0
 10
197.5145650034266
 20
92.65924090044777
 30
0.0
 42
-0.0490813128293351
  0
VERTEX
  5
8D6
  8
0
 10
197.9847135831093
 20
103.56879794421
 30
0.0
 42
-0.1365889641826533
  0
VERTEX
  5
8D7
  8
0
 10
199.5838278036493
 20
107.2215307776261
 30
0.0
 42
-0.3994842993866449
  0
VERTEX
  5
8D8
  8
0
 10
205.7697014474139
 20
108.0084005953399
 30
0.0
 42
-0.1532972809577154
  0
VERTEX
  5
8D9
  8
0
 10
208.179368950415
 20
104.7240239562418
 30
0.0
 42
-0.0865008333105004
  0
VERTEX
  5
8DA
  8
0
 10
209.1050836215481
 20
98.84480426077897
 30
0.0
 42
-0.0086488962546834
  0
VERTEX
  5
8DB
  8
0
 10
208.6955105231103
 20
86.69456758183213
 30
0.0
 42
-0.0052498780956699
  0
VERTEX
  5
8DC
  8
0
 10
207.9657186977768
 20
74.84170865533616
 30
0.0
 42
0.0129251077530278
  0
VERTEX
  5
8DD
  8
0
 10
207.6707556355912
 20
68.45404513789506
 30
0.0
 42
0.1234006003288123
  0
VERTEX
  5
8DE
  8
0
 10
208.1201689385308
 20
66.49285697050007
 30
0.0
 42
0.1155405706351524
  0
VERTEX
  5
8DF
  8
0
 10
209.5034164754619
 20
64.85355474856041
 30
0.0
 42
-0.0724588839826808
  0
VERTEX
  5
8E0
  8
0
 10
212.1968464520101
 20
62.16487752269541
 30
0.0
 42
-0.1676790270376806
  0
VERTEX
  5
8E1
  8
0
 10
214.1085086804588
 20
56.18364598847212
 30
0.0
 42
-0.1676790270376792
  0
VERTEX
  5
8E2
  8
0
 10
211.9251510361154
 20
50.29724180848664
 30
0.0
 42
-0.0723972051016313
  0
VERTEX
  5
8E3
  8
0
 10
209.111002146894
 20
47.73384595700648
 30
0.0
 42
0.1389729054981591
  0
VERTEX
  5
8E4
  8
0
 10
207.5014715310541
 20
45.82433710010392
 30
0.0
 42
0.1469955944838444
  0
VERTEX
  5
8E5
  8
0
 10
207.1893553930925
 20
43.47863587039723
 30
0.0
 42
0.0145396116090871
  0
VERTEX
  5
8E6
  8
0
 10
208.0737733761879
 20
38.8474016201143
 30
0.0
 42
-0.0407119438622185
  0
VERTEX
  5
8E7
  8
0
 10
210.6374610034381
 20
20.16796466052566
 30
0.0
 42
-0.0490813060931448
  0
VERTEX
  5
8E8
  8
0
 10
210.167312427198
 20
9.258411105308557
 30
0.0
 42
-0.1365887858814086
  0
VERTEX
  5
8E9
  8
0
 10
208.5681982032155
 20
5.605674783347325
 30
0.0
 42
-0.3994845632466722
  0
VERTEX
  5
8EA
  8
0
 10
202.3823251078117
 20
4.818803495011492
 30
0.0
 42
-0.153297227213001
  0
VERTEX
  5
8EB
  8
0
 10
199.9726570564498
 20
8.103181604731645
 30
0.0
 42
-0.086500817208482
  0
VERTEX
  5
8EC
  8
0
 10
199.046937584613
 20
13.98243056636055
 30
0.0
 42
-0.0086491248880159
  0
VERTEX
  5
8ED
  8
0
 10
199.4565144806554
 20
26.13263797914129
 30
0.0
 42
-0.0052637734753032
  0
VERTEX
  5
8EE
  8
0
 10
200.1866459548176
 20
37.98547887268132
 30
0.0
 42
0.0129799269818041
  0
VERTEX
  5
8EF
  8
0
 10
200.4812693681746
 20
44.37316042307836
 30
0.0
 42
0.0091570692279433
  0
VERTEX
  5
8F0
  8
0
 10
200.481985250232
 20
44.76671880276674
 30
0.0
 42
0.0185824852714905
  0
SEQEND
  5
EA1
  8
0
  0
POLYLINE
  5
90
  8
0
 66
     1
 10
0.0
 20
0.0
 30
0.0
 70
     1
  0
VERTEX
  5
8F1
  8
0
 10
293.6234072344313
 20
369.6277998962008
 30
0.0
 42
-0.0040833770188182
  0
VERTEX
  5
8F2
  8
0
 10
293.4991313781885
 20
361.3748587069341
 30
0.0
 42
0.0122506757724667
  0
VERTEX
  5
8F3
  8
0
 10
293.5096648375861
 20
353.1209885959998
 30
0.0
 42
0.4045844587391622
  0
VERTEX
  5
8F4
  8
0
 10
295.0253756245308
 20
351.6331593395921
 30
0.0
 42
0.4110510229882828
  0
VERTEX
  5
8F5
  8
0
 10
296.5288984868063
 20
353.0992163325617
 30
0.0
  0
VERTEX
  5
8F6
  8
0
 10
296.6004565589968
 20
363.4736762880547
 30
0.0
  0
VERTEX
  5
8F7
  8
0
 10
311.00390370593
 20
363.4736762880547
 30
0.0
 42
-0.0040921801446789
  0
VERTEX
  5
8F8
  8
0
 10
310.9247961004383
 20
358.237657360812
 30
0.0
 42
0.0122770886806731
  0
VERTEX
  5
8F9
  8
0
 10
310.931401717596
 20
353.0010450412383
 30
0.0
 42
0.4045205157861788
  0
VERTEX
  5
8FA
  8
0
 10
312.4305726554463
 20
351.5292399037937
 30
0.0
 42
0.4046572878003453
  0
VERTEX
  5
8FB
  8
0
 10
313.9506303513213
 20
352.9787240826561
 30
0.0
  0
VERTEX
  5
8FC
  8
0
 10
314.0232858137998
 20
363.4736762880547
 30
0.0
  0
VERTEX
  5
8FD
  8
0
 10
328.4374942066285
 20
363.4736762880547
 30
0.0
 42
-0.0041366594343582
  0
VERTEX
  5
8FE
  8
0
 10
328.3569908621722
 20
358.1770393347093
 30
0.0
 42
0.0124105446227075
  0
VERTEX
  5
8FF
  8
0
 10
328.3641355717627
 20
352.8797954516001
 30
0.0
 42
0.4045474663487857
  0
VERTEX
  5
900
  8
0
 10
329.8618394046381
 20
351.410608203117
 30
0.0
 42
0.4036677962494679
  0
VERTEX
  5
901
  8
0
 10
331.3843783385603
 20
352.8588166394579
 30
0.0
 42
0.0135848311022082
  0
VERTEX
  5
902
  8
0
 10
331.5157515355735
 20
361.1116417347553
 30
0.0
 42
-0.0045280294497284
  0
VERTEX
  5
903
  8
0
 10
331.4976362385964
 20
369.3654925212961
 30
0.0
 42
-0.0132418443491901
  0
VERTEX
  5
904
  8
0
 10
334.4559418451068
 20
366.8112639882995
 30
0.0
 42
-0.0264327729404985
  0
VERTEX
  5
905
  8
0
 10
335.8325932617012
 20
365.4175336880645
 30
0.0
 42
-0.0132233339355993
  0
VERTEX
  5
906
  8
0
 10
337.4813829552109
 20
363.4597635907232
 30
0.0
 42
-0.0899945714233949
  0
VERTEX
  5
907
  8
0
 10
337.6611137447645
 20
363.1260122113415
 30
0.0
  0
VERTEX
  5
908
  8
0
 10
337.3458338520783
 20
356.0509024959326
 30
0.0
 42
-0.0238886856740064
  0
VERTEX
  5
909
  8
0
 10
335.7025527595037
 20
341.9700851711652
 30
0.0
  0
VERTEX
  5
90A
  8
0
 10
334.3801685614357
 20
335.0125080836651
 30
0.0
  0
VERTEX
  5
90B
  8
0
 10
351.5998151016231
 20
313.1230756624568
 30
0.0
  0
VERTEX
  5
90C
  8
0
 10
353.4677168149843
 20
313.1097866071226
 30
0.0
  0
VERTEX
  5
90D
  8
0
 10
354.346951129859
 20
310.8668231745103
 30
0.0
  0
VERTEX
  5
90E
  8
0
 10
362.4431897265663
 20
310.8115734855946
 30
0.0
 42
-0.1676369210237905
  0
VERTEX
  5
90F
  8
0
 10
364.4995405732428
 20
310.087371362085
 30
0.0
 42
-0.1990477232470157
  0
VERTEX
  5
910
  8
0
 10
365.4011249999999
 20
308.4642867555928
 30
0.0
 42
-0.0302976815988478
  0
VERTEX
  5
911
  8
0
 10
365.4611744768789
 20
307.3429658254233
 30
0.0
 42
-0.1988771692991437
  0
VERTEX
  5
912
  8
0
 10
365.3920329108129
 20
307.1792968956688
 30
0.0
  0
VERTEX
  5
913
  8
0
 10
356.7815485984891
 20
307.2378889103977
 30
0.0
 42
0.4037242418727379
  0
VERTEX
  5
914
  8
0
 10
355.3132703948604
 20
305.7356444580559
 30
0.0
 42
0.404555090681773
  0
VERTEX
  5
915
  8
0
 10
356.7618066073936
 20
304.2186432239897
 30
0.0
  0
VERTEX
  5
916
  8
0
 10
365.3712075728152
 20
304.1600582309537
 30
0.0
 42
-0.1988901629715482
  0
VERTEX
  5
917
  8
0
 10
365.4383506659331
 20
303.9948492128083
 30
0.0
 42
-0.030387622666898
  0
VERTEX
  5
918
  8
0
 10
365.362673206663
 20
302.8735777659402
 30
0.0
 42
-0.1990532575924072
  0
VERTEX
  5
919
  8
0
 10
364.4385647896704
 20
301.2637617604633
 30
0.0
 42
-0.1675494728316363
  0
VERTEX
  5
91A
  8
0
 10
362.3717921502133
 20
300.5680711117028
 30
0.0
  0
VERTEX
  5
91B
  8
0
 10
354.2760400565128
 20
300.6241242829043
 30
0.0
  0
VERTEX
  5
91C
  8
0
 10
353.3658892278658
 20
298.3941269077534
 30
0.0
  0
VERTEX
  5
91D
  8
0
 10
347.026826266318
 20
298.4378309273683
 30
0.0
 42
-0.1903836951906123
  0
VERTEX
  5
91E
  8
0
 10
343.1377211350159
 20
300.1561236602827
 30
0.0
 42
-0.1903827794421033
  0
VERTEX
  5
91F
  8
0
 10
341.4732359514532
 20
304.0685806191477
 30
0.0
  0
VERTEX
  5
920
  8
0
 10
341.5361563382962
 20
313.1923898022211
 30
0.0
  0
VERTEX
  5
921
  8
0
 10
321.1050783712421
 20
331.55942810546
 30
0.0
  0
VERTEX
  5
922
  8
0
 10
318.2409938695132
 20
330.633484090994
 30
0.0
 42
-0.0486700073773067
  0
VERTEX
  5
923
  8
0
 10
313.5281732031451
 20
329.8814833630187
 30
0.0
 42
-0.0543581035736004
  0
VERTEX
  5
924
  8
0
 10
309.2574799466727
 20
330.0851000789137
 30
0.0
 42
-0.0288744791984817
  0
VERTEX
  5
925
  8
0
 10
306.2787880612053
 20
330.7324020592818
 30
0.0
  0
VERTEX
  5
926
  8
0
 10
303.4041008023859
 20
331.715286616229
 30
0.0
  0
VERTEX
  5
927
  8
0
 10
282.6050068833411
 20
313.6000492291411
 30
0.0
  0
VERTEX
  5
928
  8
0
 10
282.5425770119011
 20
304.4745929575366
 30
0.0
 42
-0.1894894259766167
  0
VERTEX
  5
929
  8
0
 10
280.8189223909819
 20
300.5920922619181
 30
0.0
 42
-0.1894687961127982
  0
VERTEX
  5
92A
  8
0
 10
276.9124913716489
 20
298.9222866093709
 30
0.0
  0
VERTEX
  5
92B
  8
0
 10
270.583621901972
 20
298.9660217250542
 30
0.0
  0
VERTEX
  5
92C
  8
0
 10
269.7043885901963
 20
301.2089851576666
 30
0.0
  0
VERTEX
  5
92D
  8
0
 10
261.5975031008774
 20
301.2642187969985
 30
0.0
 42
-0.1675597359909594
  0
VERTEX
  5
92E
  8
0
 10
259.5405723658727
 20
301.9883401758265
 30
0.0
 42
-0.1990531457313499
  0
VERTEX
  5
92F
  8
0
 10
258.6387613358609
 20
303.6108274320875
 30
0.0
 42
-0.0303875149696736
  0
VERTEX
  5
930
  8
0
 10
258.5785821140238
 20
304.7330360152388
 30
0.0
 42
-0.1988901708053565
  0
VERTEX
  5
931
  8
0
 10
258.6480008805985
 20
304.8973008754081
 30
0.0
  0
VERTEX
  5
932
  8
0
 10
267.2572353315888
 20
304.8369393940721
 30
0.0
 42
0.4046909496053064
  0
VERTEX
  5
933
  8
0
 10
268.7289163934277
 20
306.336301134756
 30
0.0
 42
0.4046766345133225
  0
VERTEX
  5
934
  8
0
 10
267.2783525713908
 20
307.8561760525894
 30
0.0
  0
VERTEX
  5
935
  8
0
 10
258.6688894138322
 20
307.9165395401233
 30
0.0
 42
-0.1988771059859555
  0
VERTEX
  5
936
  8
0
 10
258.6020153594549
 20
308.0811484667648
 30
0.0
 42
-0.0302977617201745
  0
VERTEX
  5
937
  8
0
 10
258.6775501704563
 20
309.2015324093441
 30
0.0
 42
-0.1990478064664237
  0
VERTEX
  5
938
  8
0
 10
259.6014396403131
 20
310.8119499129198
 30
0.0
 42
-0.1676267273936168
  0
VERTEX
  5
939
  8
0
 10
261.6676327601152
 20
311.5077301987812
 30
0.0
  0
VERTEX
  5
93A
  8
0
 10
269.7752986604433
 20
311.4516840492727
 30
0.0
  0
VERTEX
  5
93B
  8
0
 10
270.6854504921893
 20
313.6816804213245
 30
0.0
  0
VERTEX
  5
93C
  8
0
 10
272.5413471169152
 20
313.6693643720042
 30
0.0
  0
VERTEX
  5
93D
  8
0
 10
290.2664632597119
 20
335.3176196983965
 30
0.0
  0
VERTEX
  5
93E
  8
0
 10
289.0376250105739
 20
342.2925850375063
 30
0.0
 42
-0.0238886856740091
  0
VERTEX
  5
93F
  8
0
 10
287.5836070962974
 20
356.3947150183255
 30
0.0
  0
VERTEX
  5
940
  8
0
 10
287.3633975006791
 20
363.4736762880547
 30
0.0
 42
-0.0901385543862828
  0
VERTEX
  5
941
  8
0
 10
287.5479189789669
 20
363.8048955838677
 30
0.0
 42
-0.0132332868244917
  0
VERTEX
  5
942
  8
0
 10
289.2268450456591
 20
365.7403901374671
 30
0.0
 42
-0.0264526472866092
  0
VERTEX
  5
943
  8
0
 10
290.62506973442
 20
367.1150662952308
 30
0.0
 42
-0.0132518390860458
  0
SEQEND
  5
EA2
  8
0
  0
POLYLINE
  5
91
  8
0
 66
     1
 10
0.0
 20
0.0
 30
0.0
 70
     1
  0
VERTEX
  5
944
  8
0
 10
48.04723881687756
 20
251.3558098000309
 30
0.0
 42
-0.9073776364718478
  0
VERTEX
  5
945
  8
0
 10
47.45247083008843
 20
301.0853916278446
 30
0.0
 42
-0.0423861846736002
  0
VERTEX
  5
946
  8
0
 10
50.95590165510863
 20
301.1704775940365
 30
0.0
 42
-0.0177578194115937
  0
VERTEX
  5
947
  8
0
 10
59.26992735946141
 20
300.3702740355299
 30
0.0
 42
-0.1762645816565855
  0
VERTEX
  5
948
  8
0
 10
59.90357794460706
 20
300.0400595261182
 30
0.0
 42
-0.177864008413311
  0
VERTEX
  5
949
  8
0
 10
60.17254391164295
 20
299.3846038968063
 30
0.0
 42
-0.0169909903447
  0
VERTEX
  5
94A
  8
0
 10
60.19775900932778
 20
291.9054299454771
 30
0.0
 42
0.0142953995984717
  0
VERTEX
  5
94B
  8
0
 10
60.16972219420219
 20
278.0155049989456
 30
0.0
 42
0.4065305317556647
  0
VERTEX
  5
94C
  8
0
 10
61.67945391390096
 20
276.5457575080123
 30
0.0
 42
0.4064131134307155
  0
VERTEX
  5
94D
  8
0
 10
63.18900700147057
 20
278.0163134967264
 30
0.0
 42
0.014198820213393
  0
VERTEX
  5
94E
  8
0
 10
63.16859547906137
 20
288.441743939762
 30
0.0
 42
-0.016295716687021
  0
VERTEX
  5
94F
  8
0
 10
63.19189592654322
 20
298.8671683264221
 30
0.0
 42
-0.2028998406540762
  0
VERTEX
  5
950
  8
0
 10
63.53244139901689
 20
299.5996574243051
 30
0.0
 42
-0.2029093798910511
  0
VERTEX
  5
951
  8
0
 10
64.29532286424426
 20
299.8651133874075
 30
0.0
  0
VERTEX
  5
952
  8
0
 10
120.6904234255696
 20
294.1928364008077
 30
0.0
 42
-0.3572790420699503
  0
VERTEX
  5
953
  8
0
 10
121.7460223557776
 20
293.1637323567387
 30
0.0
 42
0.010684348454811
  0
VERTEX
  5
954
  8
0
 10
121.9889173077923
 20
291.3507891048218
 30
0.0
 42
0.8564030808351044
  0
VERTEX
  5
955
  8
0
 10
157.486046516591
 20
291.3563264692503
 30
0.0
 42
0.0104054781021383
  0
VERTEX
  5
956
  8
0
 10
157.7290933750986
 20
293.1670233661951
 30
0.0
 42
-0.3573003251506424
  0
VERTEX
  5
957
  8
0
 10
158.7862219487191
 20
294.1958858217176
 30
0.0
  0
VERTEX
  5
958
  8
0
 10
215.1843929960331
 20
299.8651133874075
 30
0.0
 42
-0.2029017078400338
  0
VERTEX
  5
959
  8
0
 10
215.9472814521462
 20
299.5996423874068
 30
0.0
 42
-0.2028998406541379
  0
VERTEX
  5
95A
  8
0
 10
216.2878199337341
 20
298.8671683264221
 30
0.0
 42
-0.0162957166870585
  0
VERTEX
  5
95B
  8
0
 10
216.311120381216
 20
288.441743939762
 30
0.0
 42
0.0141988202134155
  0
VERTEX
  5
95C
  8
0
 10
216.2907088588067
 20
278.0163134967264
 30
0.0
 42
0.4064131134306908
  0
VERTEX
  5
95D
  8
0
 10
217.8002619463764
 20
276.5457575080124
 30
0.0
 42
0.4065305317556387
  0
VERTEX
  5
95E
  8
0
 10
219.3099936660751
 20
278.0155049989456
 30
0.0
 42
0.0142953995984671
  0
VERTEX
  5
95F
  8
0
 10
219.2819568509499
 20
291.9054299454771
 30
0.0
 42
-0.0169909903446781
  0
VERTEX
  5
960
  8
0
 10
219.3071719486344
 20
299.3846038968063
 30
0.0
 42
-0.1778640084133694
  0
VERTEX
  5
961
  8
0
 10
219.5761379156702
 20
300.0400595261182
 30
0.0
 42
-0.1762645816565885
  0
VERTEX
  5
962
  8
0
 10
220.2097885008159
 20
300.3702740355299
 30
0.0
 42
-0.0149411541664242
  0
VERTEX
  5
963
  8
0
 10
227.81318849384
 20
301.1453232614942
 30
0.0
 42
-0.0923306145022764
  0
VERTEX
  5
964
  8
0
 10
236.6065280276725
 20
300.1524518744747
 30
0.0
 42
-0.3593329755091914
  0
VERTEX
  5
965
  8
0
 10
254.1553544096186
 20
273.6163802895828
 30
0.0
 42
-0.359393348069895
  0
VERTEX
  5
966
  8
0
 10
231.4324770433997
 20
251.3558098000308
 30
0.0
 42
-0.0198991888723889
  0
VERTEX
  5
967
  8
0
 10
230.394203961832
 20
251.3087529030448
 30
0.0
 42
0.0163705121591457
  0
VERTEX
  5
968
  8
0
 10
229.3556247344694
 20
251.269022159871
 30
0.0
  0
VERTEX
  5
969
  8
0
 10
139.7398579301387
 20
242.260712803062
 30
0.0
  0
VERTEX
  5
96A
  8
0
 10
50.12409112580795
 20
251.269022159871
 30
0.0
 42
0.0163705121591189
  0
VERTEX
  5
96B
  8
0
 10
49.08551189844535
 20
251.3087529030449
 30
0.0
 42
-0.0198991888723869
  0
SEQEND
  5
EA3
  8
0
  0
POLYLINE
  5
92
  8
0
 66
     1
 10
0.0
 20
0.0
 30
0.0
 70
     1
  0
VERTEX
  5
96C
  8
0
 10
63.31867861017474
 20
362.6397649945543
 30
0.0
 42
0.0017318644787019
  0
VERTEX
  5
96D
  8
0
 10
86.81106955132972
 20
362.7235857386451
 30
0.0
 42
-0.0103915505005897
  0
VERTEX
  5
96E
  8
0
 10
92.68382557516544
 20
362.6428264526521
 30
0.0
 42
-0.1187837887454541
  0
VERTEX
  5
96F
  8
0
 10
104.720942151147
 20
359.2985895660627
 30
0.0
 42
-0.2320704665349392
  0
VERTEX
  5
970
  8
0
 10
117.3950961701667
 20
341.0590438724097
 30
0.0
 42
-0.0239395039222023
  0
VERTEX
  5
971
  8
0
 10
117.6753373487735
 20
338.3568276105416
 30
0.0
 42
0.956803890913258
  0
VERTEX
  5
972
  8
0
 10
119.9394453467333
 20
338.3824722831912
 30
0.0
 42
0.0123651253459495
  0
VERTEX
  5
973
  8
0
 10
119.9807829828584
 20
343.4937436304651
 30
0.0
 42
-0.0041215217403293
  0
VERTEX
  5
974
  8
0
 10
119.9378544317453
 20
348.6050018635348
 30
0.0
  0
VERTEX
  5
975
  8
0
 10
155.8337997072991
 20
348.6050018635348
 30
0.0
  0
VERTEX
  5
976
  8
0
 10
155.835389619188
 20
338.3880585414307
 30
0.0
 42
0.9596333787322209
  0
VERTEX
  5
977
  8
0
 10
158.0852703855654
 20
338.3699145520657
 30
0.0
 42
-0.0254179963002991
  0
VERTEX
  5
978
  8
0
 10
158.3559528349605
 20
341.0654957376966
 30
0.0
 42
-0.2320704665349381
  0
VERTEX
  5
979
  8
0
 10
171.024797366205
 20
359.3091431997264
 30
0.0
 42
-0.1187836854440451
  0
VERTEX
  5
97A
  8
0
 10
183.0610929666701
 20
362.6570664458228
 30
0.0
 42
-0.010391428250414
  0
VERTEX
  5
97B
  8
0
 10
189.3319409898239
 20
362.7451963878131
 30
0.0
 42
0.0017318441058618
  0
VERTEX
  5
97C
  8
0
 10
214.416923969907
 20
362.6632826502239
 30
0.0
 42
-0.0032853306717731
  0
VERTEX
  5
97D
  8
0
 10
214.3466828848545
 20
351.6834484712984
 30
0.0
 42
0.0098562757035435
  0
VERTEX
  5
97E
  8
0
 10
214.4207327367476
 20
340.7036393187601
 30
0.0
 42
0.4065311335488634
  0
VERTEX
  5
97F
  8
0
 10
215.9306139718108
 20
339.2334129588073
 30
0.0
 42
0.4065350681544428
  0
VERTEX
  5
980
  8
0
 10
217.4400175440159
 20
340.7041087690844
 30
0.0
 42
0.0098613410414208
  0
VERTEX
  5
981
  8
0
 10
217.5103935101855
 20
351.683942813028
 30
0.0
 42
-0.0032870189718673
  0
VERTEX
  5
982
  8
0
 10
217.4364043814772
 20
362.6637531036472
 30
0.0
 42
-0.0012161375177588
  0
VERTEX
  5
983
  8
0
 10
227.6709601144323
 20
362.64045312264
 30
0.0
 42
-0.0920283898794829
  0
VERTEX
  5
984
  8
0
 10
236.5391255884151
 20
360.9510291290999
 30
0.0
 42
-0.3484395376241018
  0
VERTEX
  5
985
  8
0
 10
252.195341848085
 20
334.1343236951776
 30
0.0
 42
-0.3483535651758018
  0
VERTEX
  5
986
  8
0
 10
229.6457455419198
 20
312.7768555891986
 30
0.0
 42
-0.0141797004103323
  0
VERTEX
  5
987
  8
0
 10
229.0512721535017
 20
312.7414536346404
 30
0.0
 42
-0.0038710674054716
  0
VERTEX
  5
988
  8
0
 10
226.8708632887702
 20
312.6904621421228
 30
0.0
 42
-0.0052259621742628
  0
VERTEX
  5
989
  8
0
 10
212.2055947821779
 20
312.614377762092
 30
0.0
 42
0.0013548669080552
  0
VERTEX
  5
98A
  8
0
 10
184.969900053482
 20
312.6839399925317
 30
0.0
 42
0.0000001108808821
  0
VERTEX
  5
98B
  8
0
 10
162.1854806509675
 20
312.6803934949057
 30
0.0
 42
0.0000002556308792
  0
VERTEX
  5
98C
  8
0
 10
139.4010612484403
 20
312.6768470796189
 30
0.0
 42
-0.0023374826987563
  0
VERTEX
  5
98D
  8
0
 10
139.4694253243694
 20
327.8038423536545
 30
0.0
 42
0.0090162325798944
  0
VERTEX
  5
98E
  8
0
 10
139.3974390580106
 20
335.9489852451358
 30
0.0
 42
0.4065339221729028
  0
VERTEX
  5
98F
  8
0
 10
137.8872658011772
 20
337.4182652766544
 30
0.0
 42
0.4064106657305928
  0
VERTEX
  5
990
  8
0
 10
136.3781552538412
 20
335.9472378467065
 30
0.0
  0
VERTEX
  5
991
  8
0
 10
136.3817764411719
 20
312.6763776292945
 30
0.0
  0
VERTEX
  5
992
  8
0
 10
102.1889327438708
 20
312.6710551860878
 30
0.0
  0
VERTEX
  5
993
  8
0
 10
49.62765743884262
 20
312.6628749138769
 30
0.0
 42
-0.1653117072614723
  0
VERTEX
  5
994
  8
0
 10
34.17464693192463
 20
318.6139583588197
 30
0.0
 42
-0.3223439219608856
  0
VERTEX
  5
995
  8
0
 10
26.94400593032639
 20
346.711255734336
 30
0.0
 42
-0.1398353000837963
  0
VERTEX
  5
996
  8
0
 10
35.24732490637813
 20
357.6417543757748
 30
0.0
 42
-0.1397571346251292
  0
VERTEX
  5
997
  8
0
 10
48.07383662636398
 20
362.5513614524557
 30
0.0
 42
-0.0141797004103553
  0
VERTEX
  5
998
  8
0
 10
48.66874152016585
 20
362.5867956500115
 30
0.0
 42
-0.003872441856948
  0
VERTEX
  5
999
  8
0
 10
50.84995963088772
 20
362.6378239980211
 30
0.0
  0
VERTEX
  5
99A
  8
0
 10
60.29919920170356
 20
362.639294541131
 30
0.0
  0
VERTEX
  5
99B
  8
0
 10
60.30300696544515
 20
340.6796512096672
 30
0.0
 42
0.4065311885946273
  0
VERTEX
  5
99C
  8
0
 10
61.8128884209388
 20
339.2094253344227
 30
0.0
 42
0.4065350197631904
  0
VERTEX
  5
99D
  8
0
 10
63.32229177271354
 20
340.6801216630904
 30
0.0
 42
0.0098612787435338
  0
VERTEX
  5
99E
  8
0
 10
63.39266727959742
 20
351.6599552054095
 30
0.0
 42
-0.0032869982077025
  0
SEQEND
  5
EA4
  8
0
  0
POLYLINE
  5
93
  8
0
 66
     1
 10
0.0
 20
0.0
 30
0.0
 70
     1
  0
VERTEX
  5
99F
  8
0
 10
400.0
 20
0.0
 30
0.0
  0
VERTEX
  5
9A0
  8
0
 10
400.0
 20
400.0
 30
0.0
  0
VERTEX
  5
9A1
  8
0
 10
0.0
 20
400.0
 30
0.0
  0
VERTEX
  5
9A2
  8
0
 10
0.0
 20
0.0
 30
0.0
  0
SEQEND
  5
EA5
  8
0
  0
POLYLINE
  5
94
  8
0
 66
     1
 10
0.0
 20
0.0
 30
0.0
 70
     1
  0
VERTEX
  5
9A3
  8
0
 10
320.4370405080842
 20
151.1265650377195
 30
0.0
  0
VERTEX
  5
9A4
  8
0
 10
320.2560535341363
 20
151.1986884512132
 30
0.0
  0
VERTEX
  5
9A5
  8
0
 10
320.0871741086186
 20
151.2781181439319
 30
0.0
  0
VERTEX
  5
9A6
  8
0
 10
319.9304022315311
 20
151.3648541158759
 30
0.0
  0
VERTEX
  5
9A7
  8
0
 10
319.7857379028738
 20
151.4588963670448
 30
0.0
  0
VERTEX
  5
9A8
  8
0
 10
319.6531811226467
 20
151.560244897439
 30
0.0
  0
VERTEX
  5
9A9
  8
0
 10
319.5327318908497
 20
151.6688997070582
 30
0.0
  0
VERTEX
  5
9AA
  8
0
 10
319.424390207483
 20
151.7848607959025
 30
0.0
  0
VERTEX
  5
9AB
  8
0
 10
319.3281560725465
 20
151.908128163972
 30
0.0
  0
VERTEX
  5
9AC
  8
0
 10
319.2436119843701
 20
152.0381799341791
 30
0.0
  0
VERTEX
  5
9AD
  8
0
 10
319.1703404412839
 20
152.1744942294363
 30
0.0
  0
VERTEX
  5
9AE
  8
0
 10
319.1083414432879
 20
152.3170710497436
 30
0.0
  0
VERTEX
  5
9AF
  8
0
 10
319.0576149903821
 20
152.4659103951009
 30
0.0
  0
VERTEX
  5
9B0
  8
0
 10
319.0181610825665
 20
152.6210122655084
 30
0.0
  0
VERTEX
  5
9B1
  8
0
 10
318.9899797198411
 20
152.782376660966
 30
0.0
  0
VERTEX
  5
9B2
  8
0
 10
318.9730709022058
 20
152.9500035814737
 30
0.0
  0
VERTEX
  5
9B3
  8
0
 10
318.9674346296607
 20
153.1238930270315
 30
0.0
  0
VERTEX
  5
9B4
  8
0
 10
318.9794378026734
 20
153.3857709495432
 30
0.0
  0
VERTEX
  5
9B5
  8
0
 10
319.0154473217115
 20
153.6370025794697
 30
0.0
  0
VERTEX
  5
9B6
  8
0
 10
319.075463186775
 20
153.877587916811
 30
0.0
  0
VERTEX
  5
9B7
  8
0
 10
319.1594853978638
 20
154.1075269615672
 30
0.0
  0
VERTEX
  5
9B8
  8
0
 10
319.267513954978
 20
154.3268197137382
 30
0.0
  0
VERTEX
  5
9B9
  8
0
 10
319.3995488581177
 20
154.535466173324
 30
0.0
  0
VERTEX
  5
9BA
  8
0
 10
319.5555901072826
 20
154.7334663403247
 30
0.0
  0
VERTEX
  5
9BB
  8
0
 10
319.735637702473
 20
154.9208202147402
 30
0.0
  0
VERTEX
  5
9BC
  8
0
 10
319.9356210024063
 20
155.0914740223554
 30
0.0
  0
VERTEX
  5
9BD
  8
0
 10
320.1514693657997
 20
155.2393739889553
 30
0.0
  0
VERTEX
  5
9BE
  8
0
 10
320.3831827926534
 20
155.3645201145398
 30
0.0
  0
VERTEX
  5
9BF
  8
0
 10
320.6307612829673
 20
155.4669123991089
 30
0.0
  0
VERTEX
  5
9C0
  8
0
 10
320.8942048367416
 20
155.5465508426627
 30
0.0
  0
VERTEX
  5
9C1
  8
0
 10
321.1735134539761
 20
155.6034354452011
 30
0.0
  0
VERTEX
  5
9C2
  8
0
 10
321.4686871346707
 20
155.6375662067242
 30
0.0
  0
VERTEX
  5
9C3
  8
0
 10
321.7797258788257
 20
155.6489431272319
 30
0.0
  0
VERTEX
  5
9C4
  8
0
 10
322.0925390050782
 20
155.6373052681804
 30
0.0
  0
VERTEX
  5
9C5
  8
0
 10
322.3896958187055
 20
155.6023916910261
 30
0.0
  0
VERTEX
  5
9C6
  8
0
 10
322.6711963197075
 20
155.5442023957689
 30
0.0
  0
VERTEX
  5
9C7
  8
0
 10
322.9370405080842
 20
155.4627373824089
 30
0.0
  0
VERTEX
  5
9C8
  8
0
 10
323.1872283838358
 20
155.3579966509459
 30
0.0
  0
VERTEX
  5
9C9
  8
0
 10
323.421759946962
 20
155.2299802013802
 30
0.0
  0
VERTEX
  5
9CA
  8
0
 10
323.640635197463
 20
155.0786880337115
 30
0.0
  0
VERTEX
  5
9CB
  8
0
 10
323.8438541353387
 20
154.9041201479399
 30
0.0
  0
VERTEX
  5
9CC
  8
0
 10
324.0270329930541
 20
154.7128521953682
 30
0.0
  0
VERTEX
  5
9CD
  8
0
 10
324.1857880030742
 20
154.5114598272987
 30
0.0
  0
VERTEX
  5
9CE
  8
0
 10
324.3201191653988
 20
154.2999430437316
 30
0.0
  0
VERTEX
  5
9CF
  8
0
 10
324.4300264800281
 20
154.0783018446668
 30
0.0
  0
VERTEX
  5
9D0
  8
0
 10
324.5155099469619
 20
153.8465362301043
 30
0.0
  0
VERTEX
  5
9D1
  8
0
 10
324.5765695662004
 20
153.6046462000442
 30
0.0
  0
VERTEX
  5
9D2
  8
0
 10
324.6132053377435
 20
153.3526317544864
 30
0.0
  0
VERTEX
  5
9D3
  8
0
 10
324.6254172615912
 20
153.0904928934309
 30
0.0
  0
VERTEX
  5
9D4
  8
0
 10
324.6198331767549
 20
152.922918160632
 30
0.0
  0
VERTEX
  5
9D5
  8
0
 10
324.6030809222459
 20
152.7608753249607
 30
0.0
  0
VERTEX
  5
9D6
  8
0
 10
324.5751604980642
 20
152.6043643864169
 30
0.0
  0
VERTEX
  5
9D7
  8
0
 10
324.5360719042098
 20
152.4533853450008
 30
0.0
  0
VERTEX
  5
9D8
  8
0
 10
324.4858151406828
 20
152.3079382007122
 30
0.0
  0
VERTEX
  5
9D9
  8
0
 10
324.424390207483
 20
152.1680229535512
 30
0.0
  0
VERTEX
  5
9DA
  8
0
 10
324.3517971046106
 20
152.0336396035178
 30
0.0
  0
VERTEX
  5
9DB
  8
0
 10
324.2680358320655
 20
151.904788150612
 30
0.0
  0
VERTEX
  5
9DC
  8
0
 10
324.1728976390127
 20
151.7823035981738
 30
0.0
  0
VERTEX
  5
9DD
  8
0
 10
324.0661737746173
 20
151.6670209495431
 30
0.0
  0
VERTEX
  5
9DE
  8
0
 10
323.9478642388792
 20
151.5589402047202
 30
0.0
  0
VERTEX
  5
9DF
  8
0
 10
323.8179690317983
 20
151.4580613637048
 30
0.0
  0
VERTEX
  5
9E0
  8
0
 10
323.6764881533748
 20
151.3643844264971
 30
0.0
  0
VERTEX
  5
9E1
  8
0
 10
323.5234216036086
 20
151.2779093930969
 30
0.0
  0
VERTEX
  5
9E2
  8
0
 10
323.3587693824998
 20
151.1986362635044
 30
0.0
  0
VERTEX
  5
9E3
  8
0
 10
323.1825314900482
 20
151.1265650377195
 30
0.0
  0
VERTEX
  5
9E4
  8
0
 10
323.4012501774229
 20
151.0474484712532
 30
0.0
  0
VERTEX
  5
9E5
  8
0
 10
323.6065044359399
 20
150.9570593596968
 30
0.0
  0
VERTEX
  5
9E6
  8
0
 10
323.7982942655992
 20
150.8553977030502
 30
0.0
  0
VERTEX
  5
9E7
  8
0
 10
323.9766196664008
 20
150.7424635013134
 30
0.0
  0
VERTEX
  5
9E8
  8
0
 10
324.1414806383447
 20
150.6182567544864
 30
0.0
  0
VERTEX
  5
9E9
  8
0
 10
324.2928771814309
 20
150.4827774625692
 30
0.0
  0
VERTEX
  5
9EA
  8
0
 10
324.4308092956593
 20
150.3360256255619
 30
0.0
  0
VERTEX
  5
9EB
  8
0
 10
324.5552769810301
 20
150.1780012434643
 30
0.0
  0
VERTEX
  5
9EC
  8
0
 10
324.6656539850381
 20
150.0103743229566
 30
0.0
  0
VERTEX
  5
9ED
  8
0
 10
324.7613140551784
 20
149.8348148707188
 30
0.0
  0
VERTEX
  5
9EE
  8
0
 10
324.842257191451
 20
149.6513228867509
 30
0.0
  0
VERTEX
  5
9EF
  8
0
 10
324.9084833938558
 20
149.4598983710529
 30
0.0
  0
VERTEX
  5
9F0
  8
0
 10
324.9599926623928
 20
149.2605413236247
 30
0.0
  0
VERTEX
  5
9F1
  8
0
 10
324.9967849970622
 20
149.0532517444663
 30
0.0
  0
VERTEX
  5
9F2
  8
0
 10
325.0188603978638
 20
148.8380296335779
 30
0.0
  0
VERTEX
  5
9F3
  8
0
 10
325.0262188647977
 20
148.6148749909593
 30
0.0
  0
VERTEX
  5
9F4
  8
0
 10
325.0123369342699
 20
148.3071762601644
 30
0.0
  0
VERTEX
  5
9F5
  8
0
 10
324.9706911426868
 20
148.0120025794697
 30
0.0
  0
VERTEX
  5
9F6
  8
0
 10
324.9012814900482
 20
147.7293539488751
 30
0.0
  0
VERTEX
  5
9F7
  8
0
 10
324.8561652158331
 20
147.5927265273655
 30
0.0
  0
VERTEX
  5
9F8
  8
0
 10
324.8041079763541
 20
147.4592303683808
 30
0.0
  0
VERTEX
  5
9F9
  8
0
 10
324.7451097716113
 20
147.3288654719213
 30
0.0
  0
VERTEX
  5
9FA
  8
0
 10
324.6791706016046
 20
147.2016318379867
 30
0.0
  0
VERTEX
  5
9FB
  8
0
 10
324.6062904663341
 20
147.0775294665772
 30
0.0
  0
VERTEX
  5
9FC
  8
0
 10
324.5264693657997
 20
146.9565583576928
 30
0.0
  0
VERTEX
  5
9FD
  8
0
 10
324.3460042689393
 20
146.7240099274991
 30
0.0
  0
VERTEX
  5
9FE
  8
0
 10
324.1377753110235
 20
146.5039865474056
 30
0.0
  0
VERTEX
  5
9FF
  8
0
 10
324.0245279830342
 20
146.4004461332439
 30
0.0
  0
VERTEX
  5
A00
  8
0
 10
323.9068968875098
 20
146.3035857458024
 30
0.0
  0
VERTEX
  5
A01
  8
0
 10
323.7848820244503
 20
146.2134053850809
 30
0.0
  0
VERTEX
  5
A02
  8
0
 10
323.6584833938558
 20
146.1299050510796
 30
0.0
  0
VERTEX
  5
A03
  8
0
 10
323.5277009957262
 20
146.0530847437984
 30
0.0
  0
VERTEX
  5
A04
  8
0
 10
323.3925348300615
 20
145.9829444632372
 30
0.0
  0
VERTEX
  5
A05
  8
0
 10
323.2529848968618
 20
145.9194842093962
 30
0.0
  0
VERTEX
  5
A06
  8
0
 10
323.109051196127
 20
145.8627039822753
 30
0.0
  0
VERTEX
  5
A07
  8
0
 10
322.9607337278571
 20
145.8126037818745
 30
0.0
  0
VERTEX
  5
A08
  8
0
 10
322.8080324920521
 20
145.7691836081938
 30
0.0
  0
VERTEX
  5
A09
  8
0
 10
322.4894787178371
 20
145.7023833409927
 30
0.0
  0
VERTEX
  5
A0A
  8
0
 10
322.1533898734817
 20
145.6623031806721
 30
0.0
  0
VERTEX
  5
A0B
  8
0
 10
321.799765958986
 20
145.6489431272319
 30
0.0
  0
VERTEX
  5
A0C
  8
0
 10
321.4461420444903
 20
145.6623553683808
 30
0.0
  0
VERTEX
  5
A0D
  8
0
 10
321.110053200135
 20
145.7025920918277
 30
0.0
  0
VERTEX
  5
A0E
  8
0
 10
320.7914994259199
 20
145.7696532975725
 30
0.0
  0
VERTEX
  5
A0F
  8
0
 10
320.6387981901149
 20
145.8132430813067
 30
0.0
  0
VERTEX
  5
A10
  8
0
 10
320.4904807218451
 20
145.8635389856153
 30
0.0
  0
VERTEX
  5
A11
  8
0
 10
320.3465470211103
 20
145.9205410104984
 30
0.0
  0
VERTEX
  5
A12
  8
0
 10
320.2069970879105
 20
145.984249155956
 30
0.0
  0
VERTEX
  5
A13
  8
0
 10
320.0718309222459
 20
146.0546634219881
 30
0.0
  0
VERTEX
  5
A14
  8
0
 10
319.9410485241163
 20
146.1317838085946
 30
0.0
  0
VERTEX
  5
A15
  8
0
 10
319.8146498935218
 20
146.2156103157757
 30
0.0
  0
VERTEX
  5
A16
  8
0
 10
319.6926350304623
 20
146.3061429435311
 30
0.0
  0
VERTEX
  5
A17
  8
0
 10
319.5750039349379
 20
146.4033816918612
 30
0.0
  0
VERTEX
  5
A18
  8
0
 10
319.4617566069486
 20
146.5073265607656
 30
0.0
  0
VERTEX
  5
A19
  8
0
 10
319.2535276490328
 20
146.7285502581604
 30
0.0
  0
VERTEX
  5
A1A
  8
0
 10
319.1598246179706
 20
146.8441329861164
 30
0.0
  0
VERTEX
  5
A1B
  8
0
 10
319.0730625521724
 20
146.9630296335779
 30
0.0
  0
VERTEX
  5
A1C
  8
0
 10
318.993241451638
 20
147.0852402005452
 30
0.0
  0
VERTEX
  5
A1D
  8
0
 10
318.9203613163675
 20
147.2107646870181
 30
0.0
  0
VERTEX
  5
A1E
  8
0
 10
318.8544221463608
 20
147.3396030929968
 30
0.0
  0
VERTEX
  5
A1F
  8
0
 10
318.7954239416179
 20
147.4717554184811
 30
0.0
  0
VERTEX
  5
A20
  8
0
 10
318.7433667021389
 20
147.6072216634711
 30
0.0
  0
VERTEX
  5
A21
  8
0
 10
318.6982504279239
 20
147.7460018279667
 30
0.0
  0
VERTEX
  5
A22
  8
0
 10
318.6600751189726
 20
147.888095911968
 30
0.0
  0
VERTEX
  5
A23
  8
0
 10
318.6288407752853
 20
148.033503915475
 30
0.0
  0
VERTEX
  5
A24
  8
0
 10
318.5871949837021
 20
148.3342616810061
 30
0.0
  0
VERTEX
  5
A25
  8
0
 10
318.5733130531744
 20
148.6482751245599
 30
0.0
  0
VERTEX
  5
A26
  8
0
 10
318.5808802709432
 20
148.8822326228898
 30
0.0
  0
VERTEX
  5
A27
  8
0
 10
318.6035819242499
 20
149.1064832073922
 30
0.0
  0
VERTEX
  5
A28
  8
0
 10
318.6414180130942
 20
149.3210268780669
 30
0.0
  0
VERTEX
  5
A29
  8
0
 10
318.6943885374764
 20
149.5258636349139
 30
0.0
  0
VERTEX
  5
A2A
  8
0
 10
318.7624934973962
 20
149.7209934779333
 30
0.0
  0
VERTEX
  5
A2B
  8
0
 10
318.8457328928538
 20
149.906416407125
 30
0.0
  0
VERTEX
  5
A2C
  8
0
 10
318.9441067238491
 20
150.0821324224891
 30
0.0
  0
VERTEX
  5
A2D
  8
0
 10
319.0576149903821
 20
150.2481415240255
 30
0.0
  0
VERTEX
  5
A2E
  8
0
 10
319.1851095628604
 20
150.4028780804717
 30
0.0
  0
VERTEX
  5
A2F
  8
0
 10
319.3254423116914
 20
150.5447764605652
 30
0.0
  0
VERTEX
  5
A30
  8
0
 10
319.4786132368751
 20
150.673836664306
 30
0.0
  0
VERTEX
  5
A31
  8
0
 10
319.6446223384115
 20
150.7900586916941
 30
0.0
  0
VERTEX
  5
A32
  8
0
 10
319.8234696163006
 20
150.8934425427295
 30
0.0
  0
VERTEX
  5
A33
  8
0
 10
320.0151550705424
 20
150.9839882174122
 30
0.0
  0
VERTEX
  5
A34
  8
0
 10
320.2196787011369
 20
151.0616957157422
 30
0.0
  0
SEQEND
  5
EA6
  8
0
  0
POLYLINE
  5
95
  8
0
 66
     1
 10
0.0
 20
0.0
 30
0.0
 70
     1
  0
VERTEX
  5
A35
  8
0
 10
320.1965595461604
 20
153.1639731873521
 30
0.0
  0
VERTEX
  5
A36
  8
0
 10
320.203552699133
 20
152.9942587584944
 30
0.0
  0
VERTEX
  5
A37
  8
0
 10
320.2245321580508
 20
152.8324768613668
 30
0.0
  0
VERTEX
  5
A38
  8
0
 10
320.2594979229139
 20
152.6786274959694
 30
0.0
  0
VERTEX
  5
A39
  8
0
 10
320.3084499937221
 20
152.532710662302
 30
0.0
  0
VERTEX
  5
A3A
  8
0
 10
320.3713883704756
 20
152.3947263603648
 30
0.0
  0
VERTEX
  5
A3B
  8
0
 10
320.4483130531744
 20
152.2646745901577
 30
0.0
  0
VERTEX
  5
A3C
  8
0
 10
320.5392240418183
 20
152.1425553516808
 30
0.0
  0
VERTEX
  5
A3D
  8
0
 10
320.6441213364075
 20
152.0283686449339
 30
0.0
  0
VERTEX
  5
A3E
  8
0
 10
320.7601868006694
 20
151.9250369816073
 30
0.0
  0
VERTEX
  5
A3F
  8
0
 10
320.8846022983314
 20
151.8354828733908
 30
0.0
  0
VERTEX
  5
A40
  8
0
 10
321.0173678293935
 20
151.7597063202846
 30
0.0
  0
VERTEX
  5
A41
  8
0
 10
321.1584833938558
 20
151.6977073222887
 30
0.0
  0
VERTEX
  5
A42
  8
0
 10
321.3079489917181
 20
151.6494858794029
 30
0.0
  0
VERTEX
  5
A43
  8
0
 10
321.4657646229807
 20
151.6150419916274
 30
0.0
  0
VERTEX
  5
A44
  8
0
 10
321.6319302876433
 20
151.594375658962
 30
0.0
  0
VERTEX
  5
A45
  8
0
 10
321.8064459857061
 20
151.5874868814069
 30
0.0
  0
VERTEX
  5
A46
  8
0
 10
321.9762126022725
 20
151.5943234712533
 30
0.0
  0
VERTEX
  5
A47
  8
0
 10
322.1381510625264
 20
151.6148332407923
 30
0.0
  0
VERTEX
  5
A48
  8
0
 10
322.2922613664676
 20
151.6490161900242
 30
0.0
  0
VERTEX
  5
A49
  8
0
 10
322.4385435140963
 20
151.6968723189486
 30
0.0
  0
VERTEX
  5
A4A
  8
0
 10
322.5769975054122
 20
151.7584016275659
 30
0.0
  0
VERTEX
  5
A4B
  8
0
 10
322.7076233404156
 20
151.8336041158758
 30
0.0
  0
VERTEX
  5
A4C
  8
0
 10
322.8304210191063
 20
151.9224797838785
 30
0.0
  0
VERTEX
  5
A4D
  8
0
 10
322.9453905414844
 20
152.0250286315739
 30
0.0
  0
VERTEX
  5
A4E
  8
0
 10
323.0495050204422
 20
152.1374931439319
 30
0.0
  0
VERTEX
  5
A4F
  8
0
 10
323.1397375688724
 20
152.2561158059226
 30
0.0
  0
VERTEX
  5
A50
  8
0
 10
323.2160881867749
 20
152.3808966175459
 30
0.0
  0
VERTEX
  5
A51
  8
0
 10
323.2785568741497
 20
152.5118355788017
 30
0.0
  0
VERTEX
  5
A52
  8
0
 10
323.3271436309967
 20
152.6489326896902
 30
0.0
  0
VERTEX
  5
A53
  8
0
 10
323.361848457316
 20
152.7921879502112
 30
0.0
  0
VERTEX
  5
A54
  8
0
 10
323.3826713531076
 20
152.9416013603648
 30
0.0
  0
VERTEX
  5
A55
  8
0
 10
323.3896123183715
 20
153.0971729201511
 30
0.0
  0
VERTEX
  5
A56
  8
0
 10
323.3824626022727
 20
153.2592157558224
 30
0.0
  0
VERTEX
  5
A57
  8
0
 10
323.3610134539761
 20
153.4146829401911
 30
0.0
  0
VERTEX
  5
A58
  8
0
 10
323.3252648734817
 20
153.5635744732573
 30
0.0
  0
VERTEX
  5
A59
  8
0
 10
323.2752168607897
 20
153.7058903550208
 30
0.0
  0
VERTEX
  5
A5A
  8
0
 10
323.2108694158999
 20
153.8416305854817
 30
0.0
  0
VERTEX
  5
A5B
  8
0
 10
323.1322225388124
 20
153.97079516464
 30
0.0
  0
VERTEX
  5
A5C
  8
0
 10
323.0392762295271
 20
154.0933840924957
 30
0.0
  0
VERTEX
  5
A5D
  8
0
 10
322.9320304880441
 20
154.2093973690488
 30
0.0
  0
VERTEX
  5
A5E
  8
0
 10
322.8141384539759
 20
154.3150774792693
 30
0.0
  0
VERTEX
  5
A5F
  8
0
 10
322.6892532669352
 20
154.406666908127
 30
0.0
  0
VERTEX
  5
A60
  8
0
 10
322.5573749269219
 20
154.484165655622
 30
0.0
  0
VERTEX
  5
A61
  8
0
 10
322.4185034339359
 20
154.5475737217542
 30
0.0
  0
VERTEX
  5
A62
  8
0
 10
322.2726387879774
 20
154.5968911065238
 30
0.0
  0
VERTEX
  5
A63
  8
0
 10
322.1197809890461
 20
154.6321178099306
 30
0.0
  0
VERTEX
  5
A64
  8
0
 10
321.9599300371423
 20
154.6532538319747
 30
0.0
  0
VERTEX
  5
A65
  8
0
 10
321.7930859322659
 20
154.660299172656
 30
0.0
  0
VERTEX
  5
A66
  8
0
 10
321.6247283838357
 20
154.6534103951009
 30
0.0
  0
VERTEX
  5
A67
  8
0
 10
321.4636771146306
 20
154.6327440624356
 30
0.0
  0
VERTEX
  5
A68
  8
0
 10
321.3099321246507
 20
154.59830017466
 30
0.0
  0
VERTEX
  5
A69
  8
0
 10
321.1634934138959
 20
154.5500787317743
 30
0.0
  0
VERTEX
  5
A6A
  8
0
 10
321.0243609823661
 20
154.4880797337783
 30
0.0
  0
VERTEX
  5
A6B
  8
0
 10
320.8925348300615
 20
154.4123031806721
 30
0.0
  0
VERTEX
  5
A6C
  8
0
 10
320.768014956982
 20
154.3227490724557
 30
0.0
  0
VERTEX
  5
A6D
  8
0
 10
320.6508013631276
 20
154.219417409129
 30
0.0
  0
VERTEX
  5
A6E
  8
0
 10
320.544338437276
 20
154.1064832073922
 30
0.0
  0
VERTEX
  5
A6F
  8
0
 10
320.4520705682045
 20
153.9881214839453
 30
0.0
  0
VERTEX
  5
A70
  8
0
 10
320.3739977559132
 20
153.8643322387883
 30
0.0
  0
VERTEX
  5
A71
  8
0
 10
320.3101200004022
 20
153.7351154719212
 30
0.0
  0
VERTEX
  5
A72
  8
0
 10
320.2604373016714
 20
153.6004711833441
 30
0.0
  0
VERTEX
  5
A73
  8
0
 10
320.2249496597208
 20
153.4603993730568
 30
0.0
  0
VERTEX
  5
A74
  8
0
 10
320.2036570745504
 20
153.3149000410595
 30
0.0
  0
SEQEND
  5
EA7
  8
0
  0
POLYLINE
  5
96
  8
0
 66
     1
 10
0.0
 20
0.0
 30
0.0
 70
     1
  0
VERTEX
  5
A75
  8
0
 10
319.8091179963942
 20
148.6415950978398
 30
0.0
  0
VERTEX
  5
A76
  8
0
 10
319.812927699133
 20
148.5135264605652
 30
0.0
  0
VERTEX
  5
A77
  8
0
 10
319.8243568073495
 20
148.3865015774657
 30
0.0
  0
VERTEX
  5
A78
  8
0
 10
319.8434053210435
 20
148.2605204485412
 30
0.0
  0
VERTEX
  5
A79
  8
0
 10
319.8700732402152
 20
148.1355830737917
 30
0.0
  0
VERTEX
  5
A7A
  8
0
 10
319.9043605648645
 20
148.0116894532172
 30
0.0
  0
VERTEX
  5
A7B
  8
0
 10
319.9462672949915
 20
147.8888395868177
 30
0.0
  0
VERTEX
  5
A7C
  8
0
 10
320.0529389716781
 20
147.6462711165438
 30
0.0
  0
VERTEX
  5
A7D
  8
0
 10
320.1175995428204
 20
147.5294228366507
 30
0.0
  0
VERTEX
  5
A7E
  8
0
 10
320.1896707686053
 20
147.4193589588952
 30
0.0
  0
VERTEX
  5
A7F
  8
0
 10
320.2691526490328
 20
147.3160794832773
 30
0.0
  0
VERTEX
  5
A80
  8
0
 10
320.3560451841029
 20
147.219584409797
 30
0.0
  0
VERTEX
  5
A81
  8
0
 10
320.4503483738158
 20
147.1298737384543
 30
0.0
  0
VERTEX
  5
A82
  8
0
 10
320.5520622181711
 20
147.0469474692492
 30
0.0
  0
VERTEX
  5
A83
  8
0
 10
320.6611867171691
 20
146.9708056021818
 30
0.0
  0
VERTEX
  5
A84
  8
0
 10
320.7777218708097
 20
146.9014481372519
 30
0.0
  0
VERTEX
  5
A85
  8
0
 10
320.8991104813641
 20
146.8396057023822
 30
0.0
  0
VERTEX
  5
A86
  8
0
 10
321.0227953511036
 20
146.7860089254951
 30
0.0
  0
VERTEX
  5
A87
  8
0
 10
321.1487764800281
 20
146.7406578065906
 30
0.0
  0
VERTEX
  5
A88
  8
0
 10
321.2770538681377
 20
146.7035523456687
 30
0.0
  0
VERTEX
  5
A89
  8
0
 10
321.4076275154323
 20
146.6746925427295
 30
0.0
  0
VERTEX
  5
A8A
  8
0
 10
321.5404974219119
 20
146.6540783977729
 30
0.0
  0
VERTEX
  5
A8B
  8
0
 10
321.6756635875766
 20
146.641709910799
 30
0.0
  0
VERTEX
  5
A8C
  8
0
 10
321.8131260124263
 20
146.6375870818077
 30
0.0
  0
VERTEX
  5
A8D
  8
0
 10
322.0238599803621
 20
146.6462502414603
 30
0.0
  0
VERTEX
  5
A8E
  8
0
 10
322.2252001607229
 20
146.6722397204182
 30
0.0
  0
VERTEX
  5
A8F
  8
0
 10
322.4171465535084
 20
146.7155555186814
 30
0.0
  0
VERTEX
  5
A90
  8
0
 10
322.5996991587189
 20
146.7761976362499
 30
0.0
  0
VERTEX
  5
A91
  8
0
 10
322.7728579763541
 20
146.8541660731237
 30
0.0
  0
VERTEX
  5
A92
  8
0
 10
322.9366230064142
 20
146.9494608293027
 30
0.0
  0
VERTEX
  5
A93
  8
0
 10
323.0909942488992
 20
147.062081904787
 30
0.0
  0
VERTEX
  5
A94
  8
0
 10
323.235971703809
 20
147.1920292995766
 30
0.0
  0
VERTEX
  5
A95
  8
0
 10
323.3674847298611
 20
147.3353367478064
 30
0.0
  0
VERTEX
  5
A96
  8
0
 10
323.481462685773
 20
147.4880379836113
 30
0.0
  0
VERTEX
  5
A97
  8
0
 10
323.5779055715445
 20
147.6501330069914
 30
0.0
  0
VERTEX
  5
A98
  8
0
 10
323.6568133871758
 20
147.8216218179467
 30
0.0
  0
VERTEX
  5
A99
  8
0
 10
323.7181861326668
 20
148.002504416477
 30
0.0
  0
VERTEX
  5
A9A
  8
0
 10
323.7620238080174
 20
148.1927808025826
 30
0.0
  0
VERTEX
  5
A9B
  8
0
 10
323.7883264132279
 20
148.3924509762633
 30
0.0
  0
VERTEX
  5
A9C
  8
0
 10
323.797093948298
 20
148.6015149375191
 30
0.0
  0
VERTEX
  5
A9D
  8
0
 10
323.7880654746841
 20
148.8139189121351
 30
0.0
  0
VERTEX
  5
A9E
  8
0
 10
323.7609800538424
 20
149.0169290991758
 30
0.0
  0
VERTEX
  5
A9F
  8
0
 10
323.715837685773
 20
149.2105454986414
 30
0.0
  0
VERTEX
  5
AA0
  8
0
 10
323.6526383704757
 20
149.3947681105318
 30
0.0
  0
VERTEX
  5
AA1
  8
0
 10
323.5713821079506
 20
149.5695969348471
 30
0.0
  0
VERTEX
  5
AA2
  8
0
 10
323.4720688981978
 20
149.7350319715873
 30
0.0
  0
VERTEX
  5
AA3
  8
0
 10
323.3546987412171
 20
149.8910732207523
 30
0.0
  0
VERTEX
  5
AA4
  8
0
 10
323.2192716370087
 20
150.0377206823421
 30
0.0
  0
VERTEX
  5
AA5
  8
0
 10
323.0702757285251
 20
150.1707993396567
 30
0.0
  0
VERTEX
  5
AA6
  8
0
 10
322.9121991587188
 20
150.2861341759961
 30
0.0
  0
VERTEX
  5
AA7
  8
0
 10
322.7450419275899
 20
150.3837251913601
 30
0.0
  0
VERTEX
  5
AA8
  8
0
 10
322.5688040351383
 20
150.4635723857489
 30
0.0
  0
VERTEX
  5
AA9
  8
0
 10
322.3834854813641
 20
150.5256757591624
 30
0.0
  0
VERTEX
  5
AAA
  8
0
 10
322.1890862662673
 20
150.5700353116006
 30
0.0
  0
VERTEX
  5
AAB
  8
0
 10
321.9856063898477
 20
150.5966510430635
 30
0.0
  0
VERTEX
  5
AAC
  8
0
 10
321.7730458521056
 20
150.6055229535512
 30
0.0
  0
VERTEX
  5
AAD
  8
0
 10
321.5654953344035
 20
150.596755418481
 30
0.0
  0
VERTEX
  5
AAE
  8
0
 10
321.3670254780241
 20
150.5704528132706
 30
0.0
  0
VERTEX
  5
AAF
  8
0
 10
321.1776362829674
 20
150.5266151379199
 30
0.0
  0
VERTEX
  5
AB0
  8
0
 10
320.9973277492332
 20
150.4652423924289
 30
0.0
  0
VERTEX
  5
AB1
  8
0
 10
320.8260998768218
 20
150.3863345767977
 30
0.0
  0
VERTEX
  5
AB2
  8
0
 10
320.6639526657329
 20
150.2898916910261
 30
0.0
  0
VERTEX
  5
AB3
  8
0
 10
320.5108861159667
 20
150.1759137351143
 30
0.0
  0
VERTEX
  5
AB4
  8
0
 10
320.3669002275231
 20
150.0444007090622
 30
0.0
  0
VERTEX
  5
AB5
  8
0
 10
320.2361700171023
 20
149.8997363804049
 30
0.0
  0
VERTEX
  5
AB6
  8
0
 10
320.1228705014042
 20
149.7463045166774
 30
0.0
  0
VERTEX
  5
AB7
  8
0
 10
320.027001680429
 20
149.5841051178798
 30
0.0
  0
VERTEX
  5
AB8
  8
0
 10
319.9485635541764
 20
149.4131381840121
 30
0.0
  0
VERTEX
  5
AB9
  8
0
 10
319.8875561226467
 20
149.2334037150742
 30
0.0
  0
VERTEX
  5
ABA
  8
0
 10
319.8439793858398
 20
149.0449017110662
 30
0.0
  0
VERTEX
  5
ABB
  8
0
 10
319.8178333437556
 20
148.8476321719881
 30
0.0
  0
SEQEND
  5
EA8
  8
0
  0
POLYLINE
  5
97
  8
0
 66
     1
 10
0.0
 20
0.0
 30
0.0
 70
     1
  0
VERTEX
  5
ABC
  8
0
 10
326.048262952974
 20
147.9335122655084
 30
0.0
  0
VERTEX
  5
ABD
  8
0
 10
327.237307709153
 20
148.1205530136714
 30
0.0
  0
VERTEX
  5
ABE
  8
0
 10
327.2679418941897
 20
147.9470810697836
 30
0.0
  0
VERTEX
  5
ABF
  8
0
 10
327.3097442488992
 20
147.784046667646
 30
0.0
  0
VERTEX
  5
AC0
  8
0
 10
327.3627147732813
 20
147.6314498072586
 30
0.0
  0
VERTEX
  5
AC1
  8
0
 10
327.4268534673361
 20
147.4892904886213
 30
0.0
  0
VERTEX
  5
AC2
  8
0
 10
327.5021603310635
 20
147.3575687117342
 30
0.0
  0
VERTEX
  5
AC3
  8
0
 10
327.5886353644636
 20
147.2362844765973
 30
0.0
  0
VERTEX
  5
AC4
  8
0
 10
327.6862785675364
 20
147.1254377832105
 30
0.0
  0
VERTEX
  5
AC5
  8
0
 10
327.795089940282
 20
147.0250286315739
 30
0.0
  0
VERTEX
  5
AC6
  8
0
 10
327.9151738581177
 20
146.9357876496099
 30
0.0
  0
VERTEX
  5
AC7
  8
0
 10
328.046634696461
 20
146.8584454652412
 30
0.0
  0
VERTEX
  5
AC8
  8
0
 10
328.1894724553121
 20
146.7930020784677
 30
0.0
  0
VERTEX
  5
AC9
  8
0
 10
328.3436871346707
 20
146.7394574892893
 30
0.0
  0
VERTEX
  5
ACA
  8
0
 10
328.5092787345371
 20
146.6978116977062
 30
0.0
  0
VERTEX
  5
ACB
  8
0
 10
328.6862472549112
 20
146.6680647037182
 30
0.0
  0
VERTEX
  5
ACC
  8
0
 10
328.874592695793
 20
146.6502165073254
 30
0.0
  0
VERTEX
  5
ACD
  8
0
 10
329.0743150571824
 20
146.6442671085278
 30
0.0
  0
VERTEX
  5
ACE
  8
0
 10
329.2747158587856
 20
146.6495380671116
 30
0.0
  0
VERTEX
  5
ACF
  8
0
 10
329.4617566069486
 20
146.6653509428631
 30
0.0
  0
VERTEX
  5
AD0
  8
0
 10
329.6354373016713
 20
146.6917057357823
 30
0.0
  0
VERTEX
  5
AD1
  8
0
 10
329.795757942954
 20
146.7286024458691
 30
0.0
  0
VERTEX
  5
AD2
  8
0
 10
329.9427185307963
 20
146.7760410731237
 30
0.0
  0
VERTEX
  5
AD3
  8
0
 10
330.0763190651984
 20
146.8340216175458
 30
0.0
  0
VERTEX
  5
AD4
  8
0
 10
330.1965595461604
 20
146.9025440791357
 30
0.0
  0
VERTEX
  5
AD5
  8
0
 10
330.3034399736821
 20
146.9816084578932
 30
0.0
  0
VERTEX
  5
AD6
  8
0
 10
330.3973778494336
 20
147.0677703650408
 30
0.0
  0
VERTEX
  5
AD7
  8
0
 10
330.4787906750849
 20
147.157585411801
 30
0.0
  0
VERTEX
  5
AD8
  8
0
 10
330.547678450636
 20
147.2510535981737
 30
0.0
  0
VERTEX
  5
AD9
  8
0
 10
330.6040411760869
 20
147.3481749241591
 30
0.0
  0
VERTEX
  5
ADA
  8
0
 10
330.6478788514376
 20
147.4489493897569
 30
0.0
  0
VERTEX
  5
ADB
  8
0
 10
330.6791914766881
 20
147.5533769949673
 30
0.0
  0
VERTEX
  5
ADC
  8
0
 10
330.6979790518384
 20
147.6614577397903
 30
0.0
  0
VERTEX
  5
ADD
  8
0
 10
330.7042415768885
 20
147.7731916242259
 30
0.0
  0
VERTEX
  5
ADE
  8
0
 10
330.6987096797609
 20
147.8723482708525
 30
0.0
  0
VERTEX
  5
ADF
  8
0
 10
330.6821139883781
 20
147.9660773957689
 30
0.0
  0
VERTEX
  5
AE0
  8
0
 10
330.6544545027401
 20
148.0543789989754
 30
0.0
  0
VERTEX
  5
AE1
  8
0
 10
330.615731222847
 20
148.1372530804717
 30
0.0
  0
VERTEX
  5
AE2
  8
0
 10
330.5659441486987
 20
148.2146996402579
 30
0.0
  0
VERTEX
  5
AE3
  8
0
 10
330.5050932802953
 20
148.2867186783341
 30
0.0
  0
VERTEX
  5
AE4
  8
0
 10
330.4331786176366
 20
148.3533101947002
 30
0.0
  0
VERTEX
  5
AE5
  8
0
 10
330.3502001607228
 20
148.4144741893561
 30
0.0
  0
VERTEX
  5
AE6
  8
0
 10
330.2769286176366
 20
148.4559112301043
 30
0.0
  0
VERTEX
  5
AE7
  8
0
 10
330.1806944827001
 20
148.5000620317075
 30
0.0
  0
VERTEX
  5
AE8
  8
0
 10
329.9193384372759
 20
148.5965049174791
 30
0.0
  0
VERTEX
  5
AE9
  8
0
 10
329.5661320244503
 20
148.7038028466708
 30
0.0
  0
VERTEX
  5
AEA
  8
0
 10
329.1210752442232
 20
148.8219558192826
 30
0.0
  0
VERTEX
  5
AEB
  8
0
 10
328.5104790518384
 20
148.9833202147402
 30
0.0
  0
VERTEX
  5
AEC
  8
0
 10
328.0013357652653
 20
149.1334120651076
 30
0.0
  0
VERTEX
  5
AED
  8
0
 10
327.5936453845037
 20
149.2722313703848
 30
0.0
  0
VERTEX
  5
AEE
  8
0
 10
327.2874079095538
 20
149.3997781305719
 30
0.0
  0
VERTEX
  5
AEF
  8
0
 10
327.1635142889793
 20
149.4636558860829
 30
0.0
  0
VERTEX
  5
AF0
  8
0
 10
327.0473444493
 20
149.533378664974
 30
0.0
  0
VERTEX
  5
AF1
  8
0
 10
326.9388983905158
 20
149.6089464672452
 30
0.0
  0
VERTEX
  5
AF2
  8
0
 10
326.8381761126266
 20
149.6903592928965
 30
0.0
  0
VERTEX
  5
AF3
  8
0
 10
326.7451776156327
 20
149.7776171419279
 30
0.0
  0
VERTEX
  5
AF4
  8
0
 10
326.6599028995338
 20
149.8707200143394
 30
0.0
  0
VERTEX
  5
AF5
  8
0
 10
326.58235196433
 20
149.969667910131
 30
0.0
  0
VERTEX
  5
AF6
  8
0
 10
326.5125248100214
 20
150.0744608293027
 30
0.0
  0
VERTEX
  5
AF7
  8
0
 10
326.4506823751517
 20
150.1835853283007
 30
0.0
  0
VERTEX
  5
AF8
  8
0
 10
326.3970855982645
 20
150.2955279635713
 30
0.0
  0
VERTEX
  5
AF9
  8
0
 10
326.3517344793601
 20
150.4102887351143
 30
0.0
  0
VERTEX
  5
AFA
  8
0
 10
326.3146290184383
 20
150.5278676429299
 30
0.0
  0
VERTEX
  5
AFB
  8
0
 10
326.2857692154991
 20
150.6482646870181
 30
0.0
  0
VERTEX
  5
AFC
  8
0
 10
326.2651550705425
 20
150.7714798673788
 30
0.0
  0
VERTEX
  5
AFD
  8
0
 10
326.2527865835685
 20
150.8975131840121
 30
0.0
  0
VERTEX
  5
AFE
  8
0
 10
326.2486637545772
 20
151.0263646369179
 30
0.0
  0
VERTEX
  5
AFF
  8
0
 10
326.2622325588524
 20
151.2591218179466
 30
0.0
  0
VERTEX
  5
B00
  8
0
 10
326.3029389716781
 20
151.4831114639052
 30
0.0
  0
VERTEX
  5
B01
  8
0
 10
326.3707829930541
 20
151.6983335747937
 30
0.0
  0
VERTEX
  5
B02
  8
0
 10
326.4657646229807
 20
151.904788150612
 30
0.0
  0
VERTEX
  5
B03
  8
0
 10
326.5841263464276
 20
152.0983001746601
 30
0.0
  0
VERTEX
  5
B04
  8
0
 10
326.7221106483648
 20
152.2746946302379
 30
0.0
  0
VERTEX
  5
B05
  8
0
 10
326.8797175287923
 20
152.4339715173454
 30
0.0
  0
VERTEX
  5
B06
  8
0
 10
327.0569469877101
 20
152.5761308359827
 30
0.0
  0
VERTEX
  5
B07
  8
0
 10
327.2099613497676
 20
152.6757049842793
 30
0.0
  0
VERTEX
  5
B08
  8
0
 10
327.3884433136955
 20
152.7673466008458
 30
0.0
  0
VERTEX
  5
B09
  8
0
 10
327.5923928794937
 20
152.8510556856821
 30
0.0
  0
VERTEX
  5
B0A
  8
0
 10
327.8218100471624
 20
152.9268322387883
 30
0.0
  0
VERTEX
  5
B0B
  8
0
 10
328.0683447833013
 20
152.9896662401243
 30
0.0
  0
VERTEX
  5
B0C
  8
0
 10
328.3236470545104
 20
153.03454766965
 30
0.0
  0
VERTEX
  5
B0D
  8
0
 10
328.5877168607896
 20
153.0614765273655
 30
0.0
  0
VERTEX
  5
B0E
  8
0
 10
328.860554202139
 20
153.0704528132706
 30
0.0
  0
VERTEX
  5
B0F
  8
0
 10
329.0661215869085
 20
153.0666952982405
 30
0.0
  0
VERTEX
  5
B10
  8
0
 10
329.2653220712104
 20
153.0554227531504
 30
0.0
  0
VERTEX
  5
B11
  8
0
 10
329.4581556550448
 20
153.036635178
 30
0.0
  0
VERTEX
  5
B12
  8
0
 10
329.6446223384115
 20
153.0103325727897
 30
0.0
  0
VERTEX
  5
B13
  8
0
 10
329.8247221213106
 20
152.9765149375191
 30
0.0
  0
VERTEX
  5
B14
  8
0
 10
329.9984550037422
 20
152.9351822721885
 30
0.0
  0
VERTEX
  5
B15
  8
0
 10
330.1658209857061
 20
152.8863345767977
 30
0.0
  0
VERTEX
  5
B16
  8
0
 10
330.3268200672024
 20
152.8299718513468
 30
0.0
  0
VERTEX
  5
B17
  8
0
 10
330.4794691152986
 20
152.7671900377195
 30
0.0
  0
VERTEX
  5
B18
  8
0
 10
330.6217849970622
 20
152.6990850777997
 30
0.0
  0
VERTEX
  5
B19
  8
0
 10
330.753767712493
 20
152.6256569715873
 30
0.0
  0
VERTEX
  5
B1A
  8
0
 10
330.8754172615912
 20
152.5469057190822
 30
0.0
  0
VERTEX
  5
B1B
  8
0
 10
330.9867336443568
 20
152.4628313202846
 30
0.0
  0
VERTEX
  5
B1C
  8
0
 10
331.0877168607897
 20
152.3734337751945
 30
0.0
  0
VERTEX
  5
B1D
  8
0
 10
331.1783669108898
 20
152.2787130838117
 30
0.0
  0
VERTEX
  5
B1E
  8
0
 10
331.2586837946574
 20
152.1786692461363
 30
0.0
  0
VERTEX
  5
B1F
  8
0
 10
331.3309115835685
 20
152.0716322554884
 30
0.0
  0
VERTEX
  5
B20
  8
0
 10
331.3972943490996
 20
151.9559321051878
 30
0.0
  0
VERTEX
  5
B21
  8
0
 10
331.4578320912506
 20
151.8315687952345
 30
0.0
  0
VERTEX
  5
B22
  8
0
 10
331.5125248100214
 20
151.6985423256287
 30
0.0
  0
VERTEX
  5
B23
  8
0
 10
331.5613725054122
 20
151.5568526963701
 30
0.0
  0
VERTEX
  5
B24
  8
0
 10
331.6043751774229
 20
151.406499907459
 30
0.0
  0
VERTEX
  5
B25
  8
0
 10
331.672845451304
 20
151.0798048506788
 30
0.0
  0
VERTEX
  5
B26
  8
0
 10
330.4971607485652
 20
150.9194842093962
 30
0.0
  0
VERTEX
  5
B27
  8
0
 10
330.4723715869085
 20
151.0526672421283
 30
0.0
  0
VERTEX
  5
B28
  8
0
 10
330.4380842622592
 20
151.1783352448003
 30
0.0
  0
VERTEX
  5
B29
  8
0
 10
330.3942987746173
 20
151.2964882174122
 30
0.0
  0
VERTEX
  5
B2A
  8
0
 10
330.3410151239827
 20
151.407126159964
 30
0.0
  0
VERTEX
  5
B2B
  8
0
 10
330.2782333103554
 20
151.5102490724557
 30
0.0
  0
VERTEX
  5
B2C
  8
0
 10
330.2059533337355
 20
151.6058569548872
 30
0.0
  0
VERTEX
  5
B2D
  8
0
 10
330.1241751941229
 20
151.6939498072586
 30
0.0
  0
VERTEX
  5
B2E
  8
0
 10
330.0328988915177
 20
151.7745276295699
 30
0.0
  0
VERTEX
  5
B2F
  8
0
 10
329.9319156750849
 20
151.8465466676461
 30
0.0
  0
VERTEX
  5
B30
  8
0
 10
329.8210167939894
 20
151.908963167312
 30
0.0
  0
VERTEX
  5
B31
  8
0
 10
329.7002022482312
 20
151.9617771285679
 30
0.0
  0
VERTEX
  5
B32
  8
0
 10
329.5694720378103
 20
152.0049885514136
 30
0.0
  0
VERTEX
  5
B33
  8
0
 10
329.4288261627269
 20
152.0385974358491
 30
0.0
  0
VERTEX
  5
B34
  8
0
 10
329.2782646229807
 20
152.0626037818745
 30
0.0
  0
VERTEX
  5
B35
  8
0
 10
329.1177874185719
 20
152.0770075894897
 30
0.0
  0
VERTEX
  5
B36
  8
0
 10
328.9473945495004
 20
152.0818088586948
 30
0.0
  0
VERTEX
  5
B37
  8
0
 10
328.7477243758196
 20
152.0775294665772
 30
0.0
  0
VERTEX
  5
B38
  8
0
 10
328.5628755114242
 20
152.0646912902245
 30
0.0
  0
VERTEX
  5
B39
  8
0
 10
328.392847956314
 20
152.0432943296367
 30
0.0
  0
VERTEX
  5
B3A
  8
0
 10
328.237641710489
 20
152.0133385848137
 30
0.0
  0
VERTEX
  5
B3B
  8
0
 10
328.0972567739493
 20
151.9748240557556
 30
0.0
  0
VERTEX
  5
B3C
  8
0
 10
327.9716931466947
 20
151.9277507424624
 30
0.0
  0
VERTEX
  5
B3D
  8
0
 10
327.8609508287254
 20
151.8721186449339
 30
0.0
  0
VERTEX
  5
B3E
  8
0
 10
327.7650298200415
 20
151.8079277631704
 30
0.0
  0
VERTEX
  5
B3F
  8
0
 10
327.6820513631277
 20
151.7379962334443
 30
0.0
  0
VERTEX
  5
B40
  8
0
 10
327.610136700469
 20
151.6651421920281
 30
0.0
  0
VERTEX
  5
B41
  8
0
 10
327.5492858320656
 20
151.5893656389219
 30
0.0
  0
VERTEX
  5
B42
  8
0
 10
327.4994987579173
 20
151.5106665741257
 30
0.0
  0
VERTEX
  5
B43
  8
0
 10
327.4607754780242
 20
151.4290449976394
 30
0.0
  0
VERTEX
  5
B44
  8
0
 10
327.4331159923862
 20
151.344500909463
 30
0.0
  0
VERTEX
  5
B45
  8
0
 10
327.4165203010034
 20
151.2570343095966
 30
0.0
  0
VERTEX
  5
B46
  8
0
 10
327.4109884038758
 20
151.1666451980402
 30
0.0
  0
VERTEX
  5
B47
  8
0
 10
327.4201734406159
 20
151.0526672421283
 30
0.0
  0
VERTEX
  5
B48
  8
0
 10
327.4477285508364
 20
150.9445343095966
 30
0.0
  0
VERTEX
  5
B49
  8
0
 10
327.4936537345371
 20
150.842246400445
 30
0.0
  0
VERTEX
  5
B4A
  8
0
 10
327.5579489917181
 20
150.7458035146734
 30
0.0
  0
VERTEX
  5
B4B
  8
0
 10
327.6418668273895
 20
150.6531181439319
 30
0.0
  0
VERTEX
  5
B4C
  8
0
 10
327.7466597465611
 20
150.5687828065906
 30
0.0
  0
VERTEX
  5
B4D
  8
0
 10
327.8723277492332
 20
150.4927975026494
 30
0.0
  0
VERTEX
  5
B4E
  8
0
 10
328.0188708354056
 20
150.4251622321083
 30
0.0
  0
VERTEX
  5
B4F
  8
0
 10
328.3745822582513
 20
150.3149417912265
 30
0.0
  0
VERTEX
  5
B50
  8
0
 10
329.0809950839025
 20
150.1178810029834
 30
0.0
  0
VERTEX
  5
B51
  8
0
 10
329.6707161927869
 20
149.9552641025158
 30
0.0
  0
VERTEX
  5
B52
  8
0
 10
330.1639944158999
 20
149.8080947638384
 30
0.0
  0
VERTEX
  5
B53
  8
0
 10
330.5608297532411
 20
149.6763729869513
 30
0.0
  0
VERTEX
  5
B54
  8
0
 10
330.861222204811
 20
149.5600987718545
 30
0.0
  0
VERTEX
  5
B55
  8
0
 10
330.9839155080842
 20
149.5027444799373
 30
0.0
  0
VERTEX
  5
B56
  8
0
 10
331.0998244092199
 20
149.4392320383875
 30
0.0
  0
VERTEX
  5
B57
  8
0
 10
331.2089489082178
 20
149.3695614472051
 30
0.0
  0
VERTEX
  5
B58
  8
0
 10
331.3112890050783
 20
149.2937327063902
 30
0.0
  0
VERTEX
  5
B59
  8
0
 10
331.406844699801
 20
149.2117458159426
 30
0.0
  0
VERTEX
  5
B5A
  8
0
 10
331.4956159923862
 20
149.1236007758625
 30
0.0
  0
VERTEX
  5
B5B
  8
0
 10
331.5776028828337
 20
149.0292975861497
 30
0.0
  0
VERTEX
  5
B5C
  8
0
 10
331.6528053711437
 20
148.9288362468043
 30
0.0
  0
VERTEX
  5
B5D
  8
0
 10
331.7201275154322
 20
148.8221645701176
 30
0.0
  0
VERTEX
  5
B5E
  8
0
 10
331.7784733738157
 20
148.7092303683808
 30
0.0
  0
VERTEX
  5
B5F
  8
0
 10
331.827842946294
 20
148.5900336415939
 30
0.0
  0
VERTEX
  5
B60
  8
0
 10
331.8682362328671
 20
148.4645743897569
 30
0.0
  0
VERTEX
  5
B61
  8
0
 10
331.8996532335351
 20
148.3328526128698
 30
0.0
  0
VERTEX
  5
B62
  8
0
 10
331.922093948298
 20
148.1948683109326
 30
0.0
  0
VERTEX
  5
B63
  8
0
 10
331.9355583771556
 20
148.0506214839453
 30
0.0
  0
VERTEX
  5
B64
  8
0
 10
331.9400465201082
 20
147.9001121319079
 30
0.0
  0
VERTEX
  5
B65
  8
0
 10
331.9345668106894
 20
147.7509074725893
 30
0.0
  0
VERTEX
  5
B66
  8
0
 10
331.9181276824329
 20
147.6038946970382
 30
0.0
  0
VERTEX
  5
B67
  8
0
 10
331.8907291353387
 20
147.4590738052546
 30
0.0
  0
VERTEX
  5
B68
  8
0
 10
331.8523711694069
 20
147.3164447972385
 30
0.0
  0
VERTEX
  5
B69
  8
0
 10
331.8030537846373
 20
147.1760076729901
 30
0.0
  0
VERTEX
  5
B6A
  8
0
 10
331.7427769810301
 20
147.0377624325091
 30
0.0
  0
VERTEX
  5
B6B
  8
0
 10
331.6715407585852
 20
146.9017090757957
 30
0.0
  0
VERTEX
  5
B6C
  8
0
 10
331.5893451173026
 20
146.7678476028498
 30
0.0
  0
VERTEX
  5
B6D
  8
0
 10
331.4968163096874
 20
146.6388395868177
 30
0.0
  0
VERTEX
  5
B6E
  8
0
 10
331.3945805882445
 20
146.5173466008458
 30
0.0
  0
VERTEX
  5
B6F
  8
0
 10
331.282637952974
 20
146.4033686449339
 30
0.0
  0
VERTEX
  5
B70
  8
0
 10
331.1609884038758
 20
146.2969057190822
 30
0.0
  0
VERTEX
  5
B71
  8
0
 10
331.0296319409499
 20
146.1979578232907
 30
0.0
  0
VERTEX
  5
B72
  8
0
 10
330.8885685641964
 20
146.1065249575592
 30
0.0
  0
VERTEX
  5
B73
  8
0
 10
330.7377982736152
 20
146.0226071218879
 30
0.0
  0
VERTEX
  5
B74
  8
0
 10
330.5773210692064
 20
145.9462043162766
 30
0.0
  0
VERTEX
  5
B75
  8
0
 10
330.4092766470287
 20
145.8780993563568
 30
0.0
  0
VERTEX
  5
B76
  8
0
 10
330.235804703141
 20
145.8190750577596
 30
0.0
  0
VERTEX
  5
B77
  8
0
 10
330.0569052375431
 20
145.7691314204851
 30
0.0
  0
VERTEX
  5
B78
  8
0
 10
329.8725782502352
 20
145.7282684445331
 30
0.0
  0
VERTEX
  5
B79
  8
0
 10
329.6828237412171
 20
145.6964861299039
 30
0.0
  0
VERTEX
  5
B7A
  8
0
 10
329.487641710489
 20
145.6737844765973
 30
0.0
  0
VERTEX
  5
B7B
  8
0
 10
329.2870321580508
 20
145.6601634846133
 30
0.0
  0
VERTEX
  5
B7C
  8
0
 10
329.0809950839025
 20
145.655623153952
 30
0.0
  0
VERTEX
  5
B7D
  8
0
 10
328.7455846797609
 20
145.6645994398571
 30
0.0
  0
VERTEX
  5
B7E
  8
0
 10
328.430736232867
 20
145.6915282975725
 30
0.0
  0
VERTEX
  5
B7F
  8
0
 10
328.1364497432212
 20
145.7364097270982
 30
0.0
  0
VERTEX
  5
B80
  8
0
 10
327.862725210823
 20
145.7992437284342
 30
0.0
  0
VERTEX
  5
B81
  8
0
 10
327.6095626356728
 20
145.8800303015805
 30
0.0
  0
VERTEX
  5
B82
  8
0
 10
327.3769620177703
 20
145.9787694465371
 30
0.0
  0
VERTEX
  5
B83
  8
0
 10
327.1649233571156
 20
146.095461163304
 30
0.0
  0
VERTEX
  5
B84
  8
0
 10
326.9734466537088
 20
146.2301054518812
 30
0.0
  0
VERTEX
  5
B85
  8
0
 10
326.8004443991997
 20
146.3823891860161
 30
0.0
  0
VERTEX
  5
B86
  8
0
 10
326.6438290852385
 20
146.5519992394563
 30
0.0
  0
VERTEX
  5
B87
  8
0
 10
326.503600711825
 20
146.7389356122018
 30
0.0
  0
VERTEX
  5
B88
  8
0
 10
326.3797592789593
 20
146.9431983042526
 30
0.0
  0
VERTEX
  5
B89
  8
0
 10
326.2723047866414
 20
147.1647873156086
 30
0.0
  0
VERTEX
  5
B8A
  8
0
 10
326.1812372348712
 20
147.4037026462699
 30
0.0
  0
VERTEX
  5
B8B
  8
0
 10
326.1065566236487
 20
147.6599442962365
 30
0.0
  0
SEQEND
  5
EA9
  8
0
  0
POLYLINE
  5
98
  8
0
 66
     1
 10
0.0
 20
0.0
 30
0.0
 70
     1
  0
VERTEX
  5
B8C
  8
0
 10
332.734969699801
 20
145.8159437952345
 30
0.0
  0
VERTEX
  5
B8D
  8
0
 10
332.734969699801
 20
146.7912276963702
 30
0.0
  0
VERTEX
  5
B8E
  8
0
 10
337.2506677625933
 20
151.9749284311731
 30
0.0
  0
VERTEX
  5
B8F
  8
0
 10
336.5275548701417
 20
151.9448683109326
 30
0.0
  0
VERTEX
  5
B90
  8
0
 10
335.8946223384115
 20
151.9348482708525
 30
0.0
  0
VERTEX
  5
B91
  8
0
 10
333.0021707686053
 20
151.9348482708525
 30
0.0
  0
VERTEX
  5
B92
  8
0
 10
333.0021707686053
 20
152.910132171988
 30
0.0
  0
VERTEX
  5
B93
  8
0
 10
338.800433961658
 20
152.910132171988
 30
0.0
  0
VERTEX
  5
B94
  8
0
 10
338.800433961658
 20
152.1152089922953
 30
0.0
  0
VERTEX
  5
B95
  8
0
 10
334.9594185975966
 20
147.6128709829433
 30
0.0
  0
VERTEX
  5
B96
  8
0
 10
334.2179356316647
 20
146.7912276963702
 30
0.0
  0
VERTEX
  5
B97
  8
0
 10
335.0011687645973
 20
146.8363178767309
 30
0.0
  0
VERTEX
  5
B98
  8
0
 10
335.734301697129
 20
146.8513479368511
 30
0.0
  0
VERTEX
  5
B99
  8
0
 10
339.0141948167014
 20
146.8513479368511
 30
0.0
  0
VERTEX
  5
B9A
  8
0
 10
339.0141948167014
 20
145.8159437952345
 30
0.0
  0
SEQEND
  5
EAA
  8
0
  0
POLYLINE
  5
99
  8
0
 66
     1
 10
0.0
 20
0.0
 30
0.0
 70
     1
  0
VERTEX
  5
B9B
  8
0
 10
342.8351701006026
 20
146.8914280971717
 30
0.0
  0
VERTEX
  5
B9C
  8
0
 10
343.0088507953254
 20
145.8293038486748
 30
0.0
  0
VERTEX
  5
B9D
  8
0
 10
342.7616898066815
 20
145.782543661634
 30
0.0
  0
VERTEX
  5
B9E
  8
0
 10
342.5278888714777
 20
145.7491435280335
 30
0.0
  0
VERTEX
  5
B9F
  8
0
 10
342.3074479897142
 20
145.7291034478731
 30
0.0
  0
VERTEX
  5
BA0
  8
0
 10
342.1003671613909
 20
145.7224234211531
 30
0.0
  0
VERTEX
  5
BA1
  8
0
 10
341.7914159255859
 20
145.7353659729232
 30
0.0
  0
VERTEX
  5
BA2
  8
0
 10
341.6507178627936
 20
145.751544162636
 30
0.0
  0
VERTEX
  5
BA3
  8
0
 10
341.5192048367416
 20
145.7741936282339
 30
0.0
  0
VERTEX
  5
BA4
  8
0
 10
341.3968768474296
 20
145.8033143697168
 30
0.0
  0
VERTEX
  5
BA5
  8
0
 10
341.2837338948578
 20
145.8389063870849
 30
0.0
  0
VERTEX
  5
BA6
  8
0
 10
341.1797759790261
 20
145.8809696803381
 30
0.0
  0
VERTEX
  5
BA7
  8
0
 10
341.0850030999346
 20
145.9295042494764
 30
0.0
  0
VERTEX
  5
BA8
  8
0
 10
340.9180024319319
 20
146.0411859462032
 30
0.0
  0
VERTEX
  5
BA9
  8
0
 10
340.8445221380108
 20
146.1031327564904
 30
0.0
  0
VERTEX
  5
BAA
  8
0
 10
340.7777218708097
 20
146.1691502080602
 30
0.0
  0
VERTEX
  5
BAB
  8
0
 10
340.7176016303288
 20
146.2392383009126
 30
0.0
  0
VERTEX
  5
BAC
  8
0
 10
340.6641614165679
 20
146.3133970350475
 30
0.0
  0
VERTEX
  5
BAD
  8
0
 10
340.6174012295272
 20
146.391626410465
 30
0.0
  0
VERTEX
  5
BAE
  8
0
 10
340.5773210692065
 20
146.4739264271651
 30
0.0
  0
VERTEX
  5
BAF
  8
0
 10
340.5428771814309
 20
146.5698996235579
 30
0.0
  0
VERTEX
  5
BB0
  8
0
 10
340.5130258120254
 20
146.6891485380535
 30
0.0
  0
VERTEX
  5
BB1
  8
0
 10
340.48776696099
 20
146.831673170652
 30
0.0
  0
VERTEX
  5
BB2
  8
0
 10
340.4671006283247
 20
146.9974735213535
 30
0.0
  0
VERTEX
  5
BB3
  8
0
 10
340.4395455181043
 20
147.3989013770649
 30
0.0
  0
VERTEX
  5
BB4
  8
0
 10
340.4303604813642
 20
147.8934321051878
 30
0.0
  0
VERTEX
  5
BB5
  8
0
 10
340.4303604813642
 20
151.9749284311731
 30
0.0
  0
VERTEX
  5
BB6
  8
0
 10
339.54859695431
 20
151.9749284311731
 30
0.0
  0
VERTEX
  5
BB7
  8
0
 10
339.54859695431
 20
152.910132171988
 30
0.0
  0
VERTEX
  5
BB8
  8
0
 10
340.4303604813642
 20
152.910132171988
 30
0.0
  0
VERTEX
  5
BB9
  8
0
 10
340.4303604813642
 20
154.6669791993762
 30
0.0
  0
VERTEX
  5
BBA
  8
0
 10
341.6260852642633
 20
155.3884220851477
 30
0.0
  0
VERTEX
  5
BBB
  8
0
 10
341.6260852642633
 20
152.910132171988
 30
0.0
  0
VERTEX
  5
BBC
  8
0
 10
342.8351701006026
 20
152.910132171988
 30
0.0
  0
VERTEX
  5
BBD
  8
0
 10
342.8351701006026
 20
151.9749284311731
 30
0.0
  0
VERTEX
  5
BBE
  8
0
 10
341.6260852642633
 20
151.9749284311731
 30
0.0
  0
VERTEX
  5
BBF
  8
0
 10
341.6260852642633
 20
147.8266318379867
 30
0.0
  0
VERTEX
  5
BC0
  8
0
 10
341.6300515301283
 20
147.592413401113
 30
0.0
  0
VERTEX
  5
BC1
  8
0
 10
341.6419503277235
 20
147.40412014794
 30
0.0
  0
VERTEX
  5
BC2
  8
0
 10
341.6617816570489
 20
147.2617520784677
 30
0.0
  0
VERTEX
  5
BC3
  8
0
 10
341.6895455181043
 20
147.1653091926961
 30
0.0
  0
VERTEX
  5
BC4
  8
0
 10
341.7262856650649
 20
147.0955864138051
 30
0.0
  0
VERTEX
  5
BC5
  8
0
 10
341.7730458521056
 20
147.033378664974
 30
0.0
  0
VERTEX
  5
BC6
  8
0
 10
341.8298260792266
 20
146.9786859462031
 30
0.0
  0
VERTEX
  5
BC7
  8
0
 10
341.8966263464276
 20
146.9315082574924
 30
0.0
  0
VERTEX
  5
BC8
  8
0
 10
341.9761604145639
 20
146.8935156055218
 30
0.0
  0
VERTEX
  5
BC9
  8
0
 10
342.0711420444904
 20
146.8663779969714
 30
0.0
  0
VERTEX
  5
BCA
  8
0
 10
342.1815712362072
 20
146.8500954318411
 30
0.0
  0
VERTEX
  5
BCB
  8
0
 10
342.3074479897142
 20
146.844667910131
 30
0.0
  0
VERTEX
  5
BCC
  8
0
 10
342.5395789182379
 20
146.8563579568912
 30
0.0
  0
SEQEND
  5
EAB
  8
0
  0
POLYLINE
  5
9A
  8
0
 66
     1
 10
0.0
 20
0.0
 30
0.0
 70
     1
  0
VERTEX
  5
BCD
  8
0
 10
326.4467626529172
 20
38.99464063442279
 30
0.0
  0
VERTEX
  5
BCE
  8
0
 10
326.4467626529172
 20
41.35034533240936
 30
0.0
  0
VERTEX
  5
BCF
  8
0
 10
322.1783062770783
 20
41.35034533240936
 30
0.0
  0
VERTEX
  5
BD0
  8
0
 10
322.1783062770783
 20
42.45772788274493
 30
0.0
  0
VERTEX
  5
BD1
  8
0
 10
326.6682391629843
 20
48.83356680891943
 30
0.0
  0
VERTEX
  5
BD2
  8
0
 10
327.6548163441923
 20
48.83356680891943
 30
0.0
  0
VERTEX
  5
BD3
  8
0
 10
327.6548163441923
 20
42.45772788274493
 30
0.0
  0
VERTEX
  5
BD4
  8
0
 10
328.983675404595
 20
42.45772788274493
 30
0.0
  0
VERTEX
  5
BD5
  8
0
 10
328.983675404595
 20
41.35034533240936
 30
0.0
  0
VERTEX
  5
BD6
  8
0
 10
327.6548163441923
 20
41.35034533240936
 30
0.0
  0
VERTEX
  5
BD7
  8
0
 10
327.6548163441923
 20
38.99464063442279
 30
0.0
  0
SEQEND
  5
EAC
  8
0
  0
POLYLINE
  5
9B
  8
0
 66
     1
 10
0.0
 20
0.0
 30
0.0
 70
     1
  0
VERTEX
  5
BD8
  8
0
 10
326.4467626529172
 20
42.45772788274493
 30
0.0
  0
VERTEX
  5
BD9
  8
0
 10
326.4467626529172
 20
46.89396949348319
 30
0.0
  0
VERTEX
  5
BDA
  8
0
 10
323.3662257401655
 20
42.45772788274493
 30
0.0
  0
SEQEND
  5
EAD
  8
0
  0
POLYLINE
  5
9C
  8
0
 66
     1
 10
0.0
 20
0.0
 30
0.0
 70
     1
  0
VERTEX
  5
BDB
  8
0
 10
330.0709237267427
 20
41.12215741294628
 30
0.0
  0
VERTEX
  5
BDC
  8
0
 10
331.2655545992259
 20
41.31007687603353
 30
0.0
  0
VERTEX
  5
BDD
  8
0
 10
331.2963327032528
 20
41.13578996328184
 30
0.0
  0
VERTEX
  5
BDE
  8
0
 10
331.3383314448635
 20
40.97198962771137
 30
0.0
  0
VERTEX
  5
BDF
  8
0
 10
331.3915508240581
 20
40.81867586932211
 30
0.0
  0
VERTEX
  5
BE0
  8
0
 10
331.4559908408366
 20
40.67584868811407
 30
0.0
  0
VERTEX
  5
BE1
  8
0
 10
331.5316514951991
 20
40.54350808408721
 30
0.0
  0
VERTEX
  5
BE2
  8
0
 10
331.6185327871454
 20
40.42165405724158
 30
0.0
  0
VERTEX
  5
BE3
  8
0
 10
331.7166347166756
 20
40.31028660757715
 30
0.0
  0
VERTEX
  5
BE4
  8
0
 10
331.8259572837897
 20
40.20940573509393
 30
0.0
  0
VERTEX
  5
BE5
  8
0
 10
331.9466053542595
 20
40.1197455001946
 30
0.0
  0
VERTEX
  5
BE6
  8
0
 10
332.0786837938568
 20
40.04203996328185
 30
0.0
  0
VERTEX
  5
BE7
  8
0
 10
332.2221926025816
 20
39.97628912435567
 30
0.0
  0
VERTEX
  5
BE8
  8
0
 10
332.377131780434
 20
39.92249298341608
 30
0.0
  0
VERTEX
  5
BE9
  8
0
 10
332.5435013274138
 20
39.88065154046305
 30
0.0
  0
VERTEX
  5
BEA
  8
0
 10
332.7213012435212
 20
39.85076479549662
 30
0.0
  0
VERTEX
  5
BEB
  8
0
 10
332.9105315287561
 20
39.83283274851675
 30
0.0
  0
VERTEX
  5
BEC
  8
0
 10
333.1111921831185
 20
39.82685539952346
 30
0.0
  0
VERTEX
  5
BED
  8
0
 10
333.3125344649977
 20
39.83215112099997
 30
0.0
  0
VERTEX
  5
BEE
  8
0
 10
333.500453928085
 20
39.8480382854295
 30
0.0
  0
VERTEX
  5
BEF
  8
0
 10
333.6749505723803
 20
39.87451689281205
 30
0.0
  0
VERTEX
  5
BF0
  8
0
 10
333.8360243978836
 20
39.91158694314763
 30
0.0
  0
VERTEX
  5
BF1
  8
0
 10
333.9836754045951
 20
39.95924843643621
 30
0.0
  0
VERTEX
  5
BF2
  8
0
 10
334.1179035925145
 20
40.01750137267782
 30
0.0
  0
VERTEX
  5
BF3
  8
0
 10
334.238708961642
 20
40.08634575187245
 30
0.0
  0
VERTEX
  5
BF4
  8
0
 10
334.3460915119776
 20
40.1657815740201
 30
0.0
  0
VERTEX
  5
BF5
  8
0
 10
334.4404707066085
 20
40.25234826865097
 30
0.0
  0
VERTEX
  5
BF6
  8
0
 10
334.522266008622
 20
40.34258526529526
 30
0.0
  0
VERTEX
  5
BF7
  8
0
 10
334.5914774180179
 20
40.43649256395298
 30
0.0
  0
VERTEX
  5
BF8
  8
0
 10
334.6481049347964
 20
40.53407016462413
 30
0.0
  0
VERTEX
  5
BF9
  8
0
 10
334.6921485589575
 20
40.63531806730869
 30
0.0
  0
VERTEX
  5
BFA
  8
0
 10
334.7236082905011
 20
40.74023627200668
 30
0.0
  0
VERTEX
  5
BFB
  8
0
 10
334.7424841294273
 20
40.84882477871809
 30
0.0
  0
VERTEX
  5
BFC
  8
0
 10
334.748776075736
 20
40.96108358744292
 30
0.0
  0
VERTEX
  5
BFD
  8
0
 10
334.74321818983
 20
41.0607060706644
 30
0.0
  0
VERTEX
  5
BFE
  8
0
 10
334.7265445321119
 20
41.15487553375165
 30
0.0
  0
VERTEX
  5
BFF
  8
0
 10
334.6987551025817
 20
41.24359197670467
 30
0.0
  0
VERTEX
  5
C00
  8
0
 10
334.6598499012393
 20
41.32685539952345
 30
0.0
  0
VERTEX
  5
C01
  8
0
 10
334.609828928085
 20
41.40466580220802
 30
0.0
  0
VERTEX
  5
C02
  8
0
 10
334.5486921831185
 20
41.47702318475835
 30
0.0
  0
VERTEX
  5
C03
  8
0
 10
334.4764396663401
 20
41.54392754717446
 30
0.0
  0
VERTEX
  5
C04
  8
0
 10
334.3930713777494
 20
41.60537888945635
 30
0.0
  0
VERTEX
  5
C05
  8
0
 10
334.3194556059374
 20
41.64701060086574
 30
0.0
  0
VERTEX
  5
C06
  8
0
 10
334.2227693643266
 20
41.69136882234225
 30
0.0
  0
VERTEX
  5
C07
  8
0
 10
333.9601854717092
 20
41.78826479549661
 30
0.0
  0
VERTEX
  5
C08
  8
0
 10
333.6053196998971
 20
41.89606680891943
 30
0.0
  0
VERTEX
  5
C09
  8
0
 10
333.1581720488904
 20
42.01477486261071
 30
0.0
  0
VERTEX
  5
C0A
  8
0
 10
332.5447072837896
 20
42.17689734583219
 30
0.0
  0
VERTEX
  5
C0B
  8
0
 10
332.0331720488904
 20
42.32769432569796
 30
0.0
  0
VERTEX
  5
C0C
  8
0
 10
331.6235663441923
 20
42.46716580220802
 30
0.0
  0
VERTEX
  5
C0D
  8
0
 10
331.3158901696958
 20
42.59531177536238
 30
0.0
  0
VERTEX
  5
C0E
  8
0
 10
331.1914144985548
 20
42.65948962771137
 30
0.0
  0
VERTEX
  5
C0F
  8
0
 10
331.074698894528
 20
42.72953996328185
 30
0.0
  0
VERTEX
  5
C10
  8
0
 10
330.9657433576152
 20
42.8054627820738
 30
0.0
  0
VERTEX
  5
C11
  8
0
 10
330.8645478878165
 20
42.88725808408722
 30
0.0
  0
VERTEX
  5
C12
  8
0
 10
330.771112485132
 20
42.97492586932211
 30
0.0
  0
VERTEX
  5
C13
  8
0
 10
330.6854371495615
 20
43.06846613777849
 30
0.0
  0
VERTEX
  5
C14
  8
0
 10
330.6075218811051
 20
43.16787888945635
 30
0.0
  0
VERTEX
  5
C15
  8
0
 10
330.5373666797628
 20
43.27316412435567
 30
0.0
  0
VERTEX
  5
C16
  8
0
 10
330.4752337099642
 20
43.3828012887852
 30
0.0
  0
VERTEX
  5
C17
  8
0
 10
330.4213851361387
 20
43.49526982905366
 30
0.0
  0
VERTEX
  5
C18
  8
0
 10
330.3758209582863
 20
43.61056974516104
 30
0.0
  0
VERTEX
  5
C19
  8
0
 10
330.3385411764071
 20
43.72870103710736
 30
0.0
  0
VERTEX
  5
C1A
  8
0
 10
330.3095457905011
 20
43.84966370489259
 30
0.0
  0
VERTEX
  5
C1B
  8
0
 10
330.2888348005682
 20
43.97345774851675
 30
0.0
  0
VERTEX
  5
C1C
  8
0
 10
330.2764082066085
 20
44.10008316797983
 30
0.0
  0
VERTEX
  5
C1D
  8
0
 10
330.2722660086219
 20
44.22953996328184
 30
0.0
  0
VERTEX
  5
C1E
  8
0
 10
330.2858985589575
 20
44.46339063442279
 30
0.0
  0
VERTEX
  5
C1F
  8
0
 10
330.3267962099642
 20
44.68843258073152
 30
0.0
  0
VERTEX
  5
C20
  8
0
 10
330.394958961642
 20
44.90466580220802
 30
0.0
  0
VERTEX
  5
C21
  8
0
 10
330.4903868139911
 20
45.11209029885232
 30
0.0
  0
VERTEX
  5
C22
  8
0
 10
330.6093045992259
 20
45.3065114397919
 30
0.0
  0
VERTEX
  5
C23
  8
0
 10
330.7479371495615
 20
45.48373459415433
 30
0.0
  0
VERTEX
  5
C24
  8
0
 10
330.9062844649977
 20
45.64375976193956
 30
0.0
  0
VERTEX
  5
C25
  8
0
 10
331.0843465455347
 20
45.78658694314762
 30
0.0
  0
VERTEX
  5
C26
  8
0
 10
331.2380797670112
 20
45.88662888945635
 30
0.0
  0
VERTEX
  5
C27
  8
0
 10
331.4174002368098
 20
45.97870103710736
 30
0.0
  0
VERTEX
  5
C28
  8
0
 10
331.6223079549306
 20
46.06280338610064
 30
0.0
  0
VERTEX
  5
C29
  8
0
 10
331.8528029213736
 20
46.13893593643621
 30
0.0
  0
VERTEX
  5
C2A
  8
0
 10
332.1004958743937
 20
46.20206513106708
 30
0.0
  0
VERTEX
  5
C2B
  8
0
 10
332.3569975522461
 20
46.24715741294627
 30
0.0
  0
VERTEX
  5
C2C
  8
0
 10
332.6223079549306
 20
46.27421278207379
 30
0.0
  0
VERTEX
  5
C2D
  8
0
 10
332.8964270824474
 20
46.28323123844963
 30
0.0
  0
VERTEX
  5
C2E
  8
0
 10
333.1029602200314
 20
46.27945607066439
 30
0.0
  0
VERTEX
  5
C2F
  8
0
 10
333.3030965455347
 20
46.26813056730869
 30
0.0
  0
VERTEX
  5
C30
  8
0
 10
333.4968360589575
 20
46.24925472838251
 30
0.0
  0
VERTEX
  5
C31
  8
0
 10
333.6841787602998
 20
46.22282855388588
 30
0.0
  0
VERTEX
  5
C32
  8
0
 10
333.8651246495616
 20
46.18885204381876
 30
0.0
  0
VERTEX
  5
C33
  8
0
 10
334.0396737267428
 20
46.14732519818118
 30
0.0
  0
VERTEX
  5
C34
  8
0
 10
334.2078259918434
 20
46.09824801697312
 30
0.0
  0
VERTEX
  5
C35
  8
0
 10
334.3695814448635
 20
46.0416205001946
 30
0.0
  0
VERTEX
  5
C36
  8
0
 10
334.5229476361387
 20
45.97854373844963
 30
0.0
  0
VERTEX
  5
C37
  8
0
 10
334.6659321160045
 20
45.91011882234224
 30
0.0
  0
VERTEX
  5
C38
  8
0
 10
334.7985348844608
 20
45.83634575187244
 30
0.0
  0
VERTEX
  5
C39
  8
0
 10
334.9207559415078
 20
45.75722452704024
 30
0.0
  0
VERTEX
  5
C3A
  8
0
 10
335.0325952871455
 20
45.67275514784561
 30
0.0
  0
VERTEX
  5
C3B
  8
0
 10
335.1340529213736
 20
45.58293761428855
 30
0.0
  0
VERTEX
  5
C3C
  8
0
 10
335.2251288441924
 20
45.48777192636909
 30
0.0
  0
VERTEX
  5
C3D
  8
0
 10
335.3058230556018
 20
45.38725808408721
 30
0.0
  0
VERTEX
  5
C3E
  8
0
 10
335.3783901696957
 20
45.27971823509392
 30
0.0
  0
VERTEX
  5
C3F
  8
0
 10
335.4450848005682
 20
45.16347452704023
 30
0.0
  0
VERTEX
  5
C40
  8
0
 10
335.5059069482192
 20
45.03852695992614
 30
0.0
  0
VERTEX
  5
C41
  8
0
 10
335.5608566126488
 20
44.90487553375164
 30
0.0
  0
VERTEX
  5
C42
  8
0
 10
335.6099337938568
 20
44.76252024851674
 30
0.0
  0
VERTEX
  5
C43
  8
0
 10
335.6531384918434
 20
44.61146110422144
 30
0.0
  0
VERTEX
  5
C44
  8
0
 10
335.6904707066084
 20
44.45169810086573
 30
0.0
  0
VERTEX
  5
C45
  8
0
 10
335.7219304381521
 20
44.28323123844963
 30
0.0
  0
VERTEX
  5
C46
  8
0
 10
334.5407223844608
 20
44.12215741294628
 30
0.0
  0
VERTEX
  5
C47
  8
0
 10
334.5158167636554
 20
44.25596613777849
 30
0.0
  0
VERTEX
  5
C48
  8
0
 10
334.4813683576152
 20
44.38222452704024
 30
0.0
  0
VERTEX
  5
C49
  8
0
 10
334.43737716634
 20
44.50093258073152
 30
0.0
  0
VERTEX
  5
C4A
  8
0
 10
334.3838431898299
 20
44.61209029885232
 30
0.0
  0
VERTEX
  5
C4B
  8
0
 10
334.3207664280849
 20
44.71569768140265
 30
0.0
  0
VERTEX
  5
C4C
  8
0
 10
334.2481468811051
 20
44.81175472838252
 30
0.0
  0
VERTEX
  5
C4D
  8
0
 10
334.1659845488904
 20
44.90026143979191
 30
0.0
  0
VERTEX
  5
C4E
  8
0
 10
334.0742794314407
 20
44.98121781563084
 30
0.0
  0
VERTEX
  5
C4F
  8
0
 10
333.9728217972125
 20
45.05357519818118
 30
0.0
  0
VERTEX
  5
C50
  8
0
 10
333.8614019146622
 20
45.1162849297248
 30
0.0
  0
VERTEX
  5
C51
  8
0
 10
333.7400197837896
 20
45.16934701026172
 30
0.0
  0
VERTEX
  5
C52
  8
0
 10
333.608675404595
 20
45.21276143979191
 30
0.0
  0
VERTEX
  5
C53
  8
0
 10
333.4673687770783
 20
45.2465282183154
 30
0.0
  0
VERTEX
  5
C54
  8
0
 10
333.3160999012393
 20
45.27064734583218
 30
0.0
  0
VERTEX
  5
C55
  8
0
 10
333.1548687770783
 20
45.28511882234226
 30
0.0
  0
VERTEX
  5
C56
  8
0
 10
332.9836754045951
 20
45.28994264784561
 30
0.0
  0
VERTEX
  5
C57
  8
0
 10
332.7830671831186
 20
45.28564315120131
 30
0.0
  0
VERTEX
  5
C58
  8
0
 10
332.5973499012394
 20
45.27274466126843
 30
0.0
  0
VERTEX
  5
C59
  8
0
 10
332.4265235589575
 20
45.25124717804695
 30
0.0
  0
VERTEX
  5
C5A
  8
0
 10
332.2705881562729
 20
45.22115070153689
 30
0.0
  0
VERTEX
  5
C5B
  8
0
 10
332.1295436931857
 20
45.18245523173823
 30
0.0
  0
VERTEX
  5
C5C
  8
0
 10
332.0033901696957
 20
45.13516076865098
 30
0.0
  0
VERTEX
  5
C5D
  8
0
 10
331.8921275858031
 20
45.07926731227514
 30
0.0
  0
VERTEX
  5
C5E
  8
0
 10
331.7957559415078
 20
45.01477486261071
 30
0.0
  0
VERTEX
  5
C5F
  8
0
 10
331.7123876529172
 20
44.94451479549661
 30
0.0
  0
VERTEX
  5
C60
  8
0
 10
331.6401351361387
 20
44.87131848677178
 30
0.0
  0
VERTEX
  5
C61
  8
0
 10
331.5789983911723
 20
44.79518593643621
 30
0.0
  0
VERTEX
  5
C62
  8
0
 10
331.5289774180179
 20
44.7161171444899
 30
0.0
  0
VERTEX
  5
C63
  8
0
 10
331.4900722166756
 20
44.63411211093285
 30
0.0
  0
VERTEX
  5
C64
  8
0
 10
331.4622827871454
 20
44.54917083576507
 30
0.0
  0
VERTEX
  5
C65
  8
0
 10
331.4456091294272
 20
44.46129331898654
 30
0.0
  0
VERTEX
  5
C66
  8
0
 10
331.4400512435212
 20
44.37047956059728
 30
0.0
  0
VERTEX
  5
C67
  8
0
 10
331.4492794314407
 20
44.25596613777849
 30
0.0
  0
VERTEX
  5
C68
  8
0
 10
331.4769639951991
 20
44.14732519818117
 30
0.0
  0
VERTEX
  5
C69
  8
0
 10
331.5231049347964
 20
44.04455674180533
 30
0.0
  0
VERTEX
  5
C6A
  8
0
 10
331.5877022502327
 20
43.94766076865098
 30
0.0
  0
VERTEX
  5
C6B
  8
0
 10
331.6720143307696
 20
43.85453996328185
 30
0.0
  0
VERTEX
  5
C6C
  8
0
 10
331.7772995656689
 20
43.76980841965769
 30
0.0
  0
VERTEX
  5
C6D
  8
0
 10
331.9035579549306
 20
43.69346613777849
 30
0.0
  0
VERTEX
  5
C6E
  8
0
 10
332.0507894985548
 20
43.62551311764426
 30
0.0
  0
VERTEX
  5
C6F
  8
0
 10
332.4081720488904
 20
43.51477486261071
 30
0.0
  0
VERTEX
  5
C70
  8
0
 10
333.1179035925146
 20
43.3167882854295
 30
0.0
  0
VERTEX
  5
C71
  8
0
 10
333.7103952032528
 20
43.15340741294627
 30
0.0
  0
VERTEX
  5
C72
  8
0
 10
334.2059908408366
 20
43.00554667469124
 30
0.0
  0
VERTEX
  5
C73
  8
0
 10
334.6046905052662
 20
42.87320607066439
 30
0.0
  0
VERTEX
  5
C74
  8
0
 10
334.9064941965414
 20
42.75638560086574
 30
0.0
  0
VERTEX
  5
C75
  8
0
 10
335.0297639113064
 20
42.698761859255
 30
0.0
  0
VERTEX
  5
C76
  8
0
 10
335.1462173509037
 20
42.63495103710735
 30
0.0
  0
VERTEX
  5
C77
  8
0
 10
335.2558545153333
 20
42.56495313442279
 30
0.0
  0
VERTEX
  5
C78
  8
0
 10
335.358675404595
 20
42.48876815120131
 30
0.0
  0
VERTEX
  5
C79
  8
0
 10
335.454680018689
 20
42.40639608744293
 30
0.0
  0
VERTEX
  5
C7A
  8
0
 10
335.5438683576152
 20
42.31783694314763
 30
0.0
  0
VERTEX
  5
C7B
  8
0
 10
335.6262404213736
 20
42.2230907183154
 30
0.0
  0
VERTEX
  5
C7C
  8
0
 10
335.7017962099642
 20
42.12215741294628
 30
0.0
  0
VERTEX
  5
C7D
  8
0
 10
335.769434632783
 20
42.01498459415433
 30
0.0
  0
VERTEX
  5
C7E
  8
0
 10
335.8280545992259
 20
41.90151982905366
 30
0.0
  0
VERTEX
  5
C7F
  8
0
 10
335.8776561092931
 20
41.78176311764427
 30
0.0
  0
VERTEX
  5
C80
  8
0
 10
335.9182391629844
 20
41.65571445992614
 30
0.0
  0
VERTEX
  5
C81
  8
0
 10
335.9498037602998
 20
41.5233738558993
 30
0.0
  0
VERTEX
  5
C82
  8
0
 10
335.9723499012394
 20
41.38474130556373
 30
0.0
  0
VERTEX
  5
C83
  8
0
 10
335.9858775858031
 20
41.23981680891944
 30
0.0
  0
VERTEX
  5
C84
  8
0
 10
335.9903868139911
 20
41.08860036596641
 30
0.0
  0
VERTEX
  5
C85
  8
0
 10
335.9848813609709
 20
40.93869474516105
 30
0.0
  0
VERTEX
  5
C86
  8
0
 10
335.9683650019105
 20
40.79099130556374
 30
0.0
  0
VERTEX
  5
C87
  8
0
 10
335.9408377368098
 20
40.64549004717448
 30
0.0
  0
VERTEX
  5
C88
  8
0
 10
335.9022995656689
 20
40.50219096999326
 30
0.0
  0
VERTEX
  5
C89
  8
0
 10
335.8527504884877
 20
40.36109407402012
 30
0.0
  0
VERTEX
  5
C8A
  8
0
 10
335.7921905052662
 20
40.22219935925501
 30
0.0
  0
VERTEX
  5
C8B
  8
0
 10
335.7206196160045
 20
40.08550682569796
 30
0.0
  0
VERTEX
  5
C8C
  8
0
 10
335.6380378207024
 20
39.95101647334896
 30
0.0
  0
VERTEX
  5
C8D
  8
0
 10
335.545074313991
 20
39.82140237938923
 30
0.0
  0
VERTEX
  5
C8E
  8
0
 10
335.442358290501
 20
39.69933862099997
 30
0.0
  0
VERTEX
  5
C8F
  8
0
 10
335.3298897502326
 20
39.58482519818119
 30
0.0
  0
VERTEX
  5
C90
  8
0
 10
335.2076686931856
 20
39.47786211093285
 30
0.0
  0
VERTEX
  5
C91
  8
0
 10
335.0756951193601
 20
39.378449359255
 30
0.0
  0
VERTEX
  5
C92
  8
0
 10
334.9339690287561
 20
39.28658694314762
 30
0.0
  0
VERTEX
  5
C93
  8
0
 10
334.7824904213736
 20
39.20227486261071
 30
0.0
  0
VERTEX
  5
C94
  8
0
 10
334.6212592972125
 20
39.12551311764426
 30
0.0
  0
VERTEX
  5
C95
  8
0
 10
334.452425404595
 20
39.05708820153689
 30
0.0
  0
VERTEX
  5
C96
  8
0
 10
334.2781384918434
 20
38.99778660757715
 30
0.0
  0
VERTEX
  5
C97
  8
0
 10
334.0983985589575
 20
38.94760833576508
 30
0.0
  0
VERTEX
  5
C98
  8
0
 10
333.9132056059374
 20
38.90655338610064
 30
0.0
  0
VERTEX
  5
C99
  8
0
 10
333.7225596327829
 20
38.87462175858386
 30
0.0
  0
VERTEX
  5
C9A
  8
0
 10
333.5264606394944
 20
38.85181345321473
 30
0.0
  0
VERTEX
  5
C9B
  8
0
 10
333.3249086260715
 20
38.83812846999326
 30
0.0
  0
VERTEX
  5
C9C
  8
0
 10
333.1179035925146
 20
38.83356680891943
 30
0.0
  0
VERTEX
  5
C9D
  8
0
 10
332.7809174347964
 20
38.84258526529527
 30
0.0
  0
VERTEX
  5
C9E
  8
0
 10
332.4645898341253
 20
38.86964063442279
 30
0.0
  0
VERTEX
  5
C9F
  8
0
 10
332.1689207905011
 20
38.91473291630198
 30
0.0
  0
VERTEX
  5
CA0
  8
0
 10
331.8939103039239
 20
38.97786211093285
 30
0.0
  0
VERTEX
  5
CA1
  8
0
 10
331.6395583743937
 20
39.0590282183154
 30
0.0
  0
VERTEX
  5
CA2
  8
0
 10
331.4058650019105
 20
39.15823123844963
 30
0.0
  0
VERTEX
  5
CA3
  8
0
 10
331.1928301864743
 20
39.27547117133554
 30
0.0
  0
VERTEX
  5
CA4
  8
0
 10
331.000453928085
 20
39.41074801697312
 30
0.0
  0
VERTEX
  5
CA5
  8
0
 10
330.8266389113065
 20
39.56374717804695
 30
0.0
  0
VERTEX
  5
CA6
  8
0
 10
330.6692878207024
 20
39.73415405724158
 30
0.0
  0
VERTEX
  5
CA7
  8
0
 10
330.5284006562729
 20
39.92196865455701
 30
0.0
  0
VERTEX
  5
CA8
  8
0
 10
330.4039774180179
 20
40.12719096999326
 30
0.0
  0
VERTEX
  5
CA9
  8
0
 10
330.2960181059373
 20
40.3498210035503
 30
0.0
  0
VERTEX
  5
CAA
  8
0
 10
330.2045227200313
 20
40.58985875522816
 30
0.0
  0
VERTEX
  5
CAB
  8
0
 10
330.1294912602997
 20
40.84730422502681
 30
0.0
  0
SEQEND
  5
EAE
  8
0
  0
POLYLINE
  5
9D
  8
0
 66
     1
 10
0.0
 20
0.0
 30
0.0
 70
     1
  0
VERTEX
  5
CAC
  8
0
 10
336.7890445321118
 20
38.99464063442279
 30
0.0
  0
VERTEX
  5
CAD
  8
0
 10
336.7890445321118
 20
39.97450640623487
 30
0.0
  0
VERTEX
  5
CAE
  8
0
 10
341.3259572837896
 20
45.18256009751003
 30
0.0
  0
VERTEX
  5
CAF
  8
0
 10
340.5994472166756
 20
45.15235875522815
 30
0.0
  0
VERTEX
  5
CB0
  8
0
 10
339.9635411764071
 20
45.14229164113419
 30
0.0
  0
VERTEX
  5
CB1
  8
0
 10
337.0575009079507
 20
45.14229164113419
 30
0.0
  0
VERTEX
  5
CB2
  8
0
 10
337.0575009079507
 20
46.12215741294628
 30
0.0
  0
VERTEX
  5
CB3
  8
0
 10
342.8830042636554
 20
46.12215741294628
 30
0.0
  0
VERTEX
  5
CB4
  8
0
 10
342.8830042636554
 20
45.32349969482547
 30
0.0
  0
VERTEX
  5
CB5
  8
0
 10
339.0239438609709
 20
40.80000976193956
 30
0.0
  0
VERTEX
  5
CB6
  8
0
 10
338.2789774180179
 20
39.97450640623487
 30
0.0
  0
VERTEX
  5
CB7
  8
0
 10
339.0658901696957
 20
40.01980841965769
 30
0.0
  0
VERTEX
  5
CB8
  8
0
 10
339.8024673509038
 20
40.03490909079863
 30
0.0
  0
VERTEX
  5
CB9
  8
0
 10
343.0977693643266
 20
40.03490909079863
 30
0.0
  0
VERTEX
  5
CBA
  8
0
 10
343.0977693643266
 20
38.99464063442279
 30
0.0
  0
SEQEND
  5
EAF
  8
0
  0
POLYLINE
  5
9E
  8
0
 66
     1
 10
0.0
 20
0.0
 30
0.0
 70
     1
  0
VERTEX
  5
CBB
  8
0
 10
346.9366955388232
 20
40.07517754717446
 30
0.0
  0
VERTEX
  5
CBC
  8
0
 10
347.1111921831185
 20
39.00806345321473
 30
0.0
  0
VERTEX
  5
CBD
  8
0
 10
346.8628700354675
 20
38.96108358744292
 30
0.0
  0
VERTEX
  5
CBE
  8
0
 10
346.6279707066085
 20
38.92752654046306
 30
0.0
  0
VERTEX
  5
CBF
  8
0
 10
346.4064941965414
 20
38.90739231227514
 30
0.0
  0
VERTEX
  5
CC0
  8
0
 10
346.1984405052662
 20
38.90068090287916
 30
0.0
  0
VERTEX
  5
CC1
  8
0
 10
345.8880378207025
 20
38.91368425858386
 30
0.0
  0
VERTEX
  5
CC2
  8
0
 10
345.7466787602998
 20
38.92993845321474
 30
0.0
  0
VERTEX
  5
CC3
  8
0
 10
345.6145478878166
 20
38.95269432569795
 30
0.0
  0
VERTEX
  5
CC4
  8
0
 10
345.4916452032528
 20
38.98195187603352
 30
0.0
  0
VERTEX
  5
CC5
  8
0
 10
345.3779707066085
 20
39.01771110422145
 30
0.0
  0
VERTEX
  5
CC6
  8
0
 10
345.2735243978836
 20
39.05997201026172
 30
0.0
  0
VERTEX
  5
CC7
  8
0
 10
345.1783062770783
 20
39.10873459415433
 30
0.0
  0
VERTEX
  5
CC8
  8
0
 10
345.0105210421789
 20
39.22094096999326
 30
0.0
  0
VERTEX
  5
CC9
  8
0
 10
344.9366955388232
 20
39.28317880556373
 30
0.0
  0
VERTEX
  5
CCA
  8
0
 10
344.8695814448635
 20
39.34950640623487
 30
0.0
  0
VERTEX
  5
CCB
  8
0
 10
344.8091787602997
 20
39.41992377200668
 30
0.0
  0
VERTEX
  5
CCC
  8
0
 10
344.7554874851319
 20
39.49443090287917
 30
0.0
  0
VERTEX
  5
CCD
  8
0
 10
344.7085076193601
 20
39.57302779885232
 30
0.0
  0
VERTEX
  5
CCE
  8
0
 10
344.6682391629843
 20
39.65571445992614
 30
0.0
  0
VERTEX
  5
CCF
  8
0
 10
344.6336334582863
 20
39.75213853710736
 30
0.0
  0
VERTEX
  5
CD0
  8
0
 10
344.603641847548
 20
39.87194768140265
 30
0.0
  0
VERTEX
  5
CD1
  8
0
 10
344.5782643307695
 20
40.01514189281205
 30
0.0
  0
VERTEX
  5
CD2
  8
0
 10
344.5575009079507
 20
40.18172117133554
 30
0.0
  0
VERTEX
  5
CD3
  8
0
 10
344.5298163441923
 20
40.5850349297248
 30
0.0
  0
VERTEX
  5
CD4
  8
0
 10
344.5205881562729
 20
41.08188895657044
 30
0.0
  0
VERTEX
  5
CD5
  8
0
 10
344.5205881562729
 20
45.18256009751003
 30
0.0
  0
VERTEX
  5
CD6
  8
0
 10
343.6346821160045
 20
45.18256009751003
 30
0.0
  0
VERTEX
  5
CD7
  8
0
 10
343.6346821160045
 20
46.12215741294628
 30
0.0
  0
VERTEX
  5
CD8
  8
0
 10
344.5205881562729
 20
46.12215741294628
 30
0.0
  0
VERTEX
  5
CD9
  8
0
 10
344.5205881562729
 20
47.88725808408721
 30
0.0
  0
VERTEX
  5
CDA
  8
0
 10
345.7219304381521
 20
48.61209029885232
 30
0.0
  0
VERTEX
  5
CDB
  8
0
 10
345.7219304381521
 20
46.12215741294628
 30
0.0
  0
VERTEX
  5
CDC
  8
0
 10
346.9366955388232
 20
46.12215741294628
 30
0.0
  0
VERTEX
  5
CDD
  8
0
 10
346.9366955388232
 20
45.18256009751003
 30
0.0
  0
VERTEX
  5
CDE
  8
0
 10
345.7219304381521
 20
45.18256009751003
 30
0.0
  0
VERTEX
  5
CDF
  8
0
 10
345.7219304381521
 20
41.01477486261071
 30
0.0
  0
VERTEX
  5
CE0
  8
0
 10
345.725915337481
 20
40.77945607066439
 30
0.0
  0
VERTEX
  5
CE1
  8
0
 10
345.7378700354675
 20
40.5902782183154
 30
0.0
  0
VERTEX
  5
CE2
  8
0
 10
345.7577945321118
 20
40.44724130556373
 30
0.0
  0
VERTEX
  5
CE3
  8
0
 10
345.7856888274138
 20
40.35034533240936
 30
0.0
  0
VERTEX
  5
CE4
  8
0
 10
345.8226015790916
 20
40.2802949968389
 30
0.0
  0
VERTEX
  5
CE5
  8
0
 10
345.8695814448635
 20
40.2177949968389
 30
0.0
  0
VERTEX
  5
CE6
  8
0
 10
345.9266284247292
 20
40.16284533240937
 30
0.0
  0
VERTEX
  5
CE7
  8
0
 10
345.993742518689
 20
40.1154460035503
 30
0.0
  0
VERTEX
  5
CE8
  8
0
 10
346.0736502368098
 20
40.07727486261071
 30
0.0
  0
VERTEX
  5
CE9
  8
0
 10
346.1690780891588
 20
40.05000976193956
 30
0.0
  0
VERTEX
  5
CEA
  8
0
 10
346.280026075736
 20
40.03365070153688
 30
0.0
  0
VERTEX
  5
CEB
  8
0
 10
346.4064941965414
 20
40.02819768140265
 30
0.0
  0
VERTEX
  5
CEC
  8
0
 10
346.6397156730514
 20
40.03994264784561
 30
0.0
  0
SEQEND
  5
EB0
  8
0
  0
POLYLINE
  5
9F
  8
0
 66
     1
 10
0.0
 20
0.0
 30
0.0
 70
     1
  0
VERTEX
  5
CED
  8
0
 10
358.3802640374332
 20
198.5561497326203
 30
0.0
  0
VERTEX
  5
CEE
  8
0
 10
358.3802640374332
 20
197.3997326203208
 30
0.0
  0
VERTEX
  5
CEF
  8
0
 10
351.9029913101604
 20
197.3997326203208
 30
0.0
  0
VERTEX
  5
CF0
  8
0
 10
351.9067513368984
 20
197.6148897058823
 30
0.0
  0
VERTEX
  5
CF1
  8
0
 10
351.9314004010695
 20
197.8258689839572
 30
0.0
  0
VERTEX
  5
CF2
  8
0
 10
351.9769385026738
 20
198.0326704545454
 30
0.0
  0
VERTEX
  5
CF3
  8
0
 10
352.0433656417112
 20
198.235294117647
 30
0.0
  0
VERTEX
  5
CF4
  8
0
 10
352.1098450033422
 20
198.4004219585561
 30
0.0
  0
VERTEX
  5
CF5
  8
0
 10
352.185619986631
 20
198.5649231283422
 30
0.0
  0
VERTEX
  5
CF6
  8
0
 10
352.2706905915775
 20
198.7287976270053
 30
0.0
  0
VERTEX
  5
CF7
  8
0
 10
352.3650568181818
 20
198.8920454545454
 30
0.0
  0
VERTEX
  5
CF8
  8
0
 10
352.4687186664439
 20
199.0546666109626
 30
0.0
  0
VERTEX
  5
CF9
  8
0
 10
352.5816761363636
 20
199.2166610962567
 30
0.0
  0
VERTEX
  5
CFA
  8
0
 10
352.7039292279412
 20
199.3780289104278
 30
0.0
  0
VERTEX
  5
CFB
  8
0
 10
352.8354779411765
 20
199.5387700534759
 30
0.0
  0
VERTEX
  5
CFC
  8
0
 10
353.1381600935829
 20
199.8721590909091
 30
0.0
  0
VERTEX
  5
CFD
  8
0
 10
353.5014204545454
 20
200.230614973262
 30
0.0
  0
VERTEX
  5
CFE
  8
0
 10
353.9252590240642
 20
200.6141377005347
 30
0.0
  0
VERTEX
  5
CFF
  8
0
 10
354.409675802139
 20
201.0227272727273
 30
0.0
  0
VERTEX
  5
D00
  8
0
 10
354.7928851938503
 20
201.3417550969251
 30
0.0
  0
VERTEX
  5
D01
  8
0
 10
355.1437165775401
 20
201.643758355615
 30
0.0
  0
VERTEX
  5
D02
  8
0
 10
355.4621699532086
 20
201.9287370487968
 30
0.0
  0
VERTEX
  5
D03
  8
0
 10
355.7482453208556
 20
202.1966911764706
 30
0.0
  0
VERTEX
  5
D04
  8
0
 10
356.0019426804813
 20
202.4476207386364
 30
0.0
  0
VERTEX
  5
D05
  8
0
 10
356.2232620320856
 20
202.6815257352941
 30
0.0
  0
VERTEX
  5
D06
  8
0
 10
356.4122033756685
 20
202.8984061664438
 30
0.0
  0
VERTEX
  5
D07
  8
0
 10
356.56876671123
 20
203.0982620320855
 30
0.0
  0
VERTEX
  5
D08
  8
0
 10
356.7003676470588
 20
203.2883000501336
 30
0.0
  0
VERTEX
  5
D09
  8
0
 10
356.8144217914439
 20
203.4757269385026
 30
0.0
  0
VERTEX
  5
D0A
  8
0
 10
356.910929144385
 20
203.6605426971925
 30
0.0
  0
VERTEX
  5
D0B
  8
0
 10
356.9898897058824
 20
203.8427473262032
 30
0.0
  0
VERTEX
  5
D0C
  8
0
 10
357.0513034759358
 20
204.0223408255347
 30
0.0
  0
VERTEX
  5
D0D
  8
0
 10
357.0951704545455
 20
204.1993231951872
 30
0.0
  0
VERTEX
  5
D0E
  8
0
 10
357.1214906417113
 20
204.3736944351604
 30
0.0
  0
VERTEX
  5
D0F
  8
0
 10
357.1302640374332
 20
204.5454545454545
 30
0.0
  0
VERTEX
  5
D10
  8
0
 10
357.122273980615
 20
204.7207657921123
 30
0.0
  0
VERTEX
  5
D11
  8
0
 10
357.0983038101604
 20
204.8890792112299
 30
0.0
  0
VERTEX
  5
D12
  8
0
 10
357.0583535260695
 20
205.0503948028075
 30
0.0
  0
VERTEX
  5
D13
  8
0
 10
357.0024231283422
 20
205.2047125668449
 30
0.0
  0
VERTEX
  5
D14
  8
0
 10
356.9305126169786
 20
205.3520325033422
 30
0.0
  0
VERTEX
  5
D15
  8
0
 10
356.8426219919787
 20
205.4923546122994
 30
0.0
  0
VERTEX
  5
D16
  8
0
 10
356.7387512533423
 20
205.6256788937166
 30
0.0
  0
VERTEX
  5
D17
  8
0
 10
356.6189004010695
 20
205.7520053475936
 30
0.0
  0
VERTEX
  5
D18
  8
0
 10
356.4862027907754
 20
205.8671561664438
 30
0.0
  0
VERTEX
  5
D19
  8
0
 10
356.3437917780749
 20
205.9669535427807
 30
0.0
  0
VERTEX
  5
D1A
  8
0
 10
356.1916673629679
 20
206.0513974766043
 30
0.0
  0
VERTEX
  5
D1B
  8
0
 10
356.0298295454545
 20
206.1204879679144
 30
0.0
  0
VERTEX
  5
D1C
  8
0
 10
355.8582783255347
 20
206.1742250167112
 30
0.0
  0
VERTEX
  5
D1D
  8
0
 10
355.6770137032086
 20
206.2126086229946
 30
0.0
  0
VERTEX
  5
D1E
  8
0
 10
355.486035678476
 20
206.2356387867647
 30
0.0
  0
VERTEX
  5
D1F
  8
0
 10
355.2853442513369
 20
206.2433155080214
 30
0.0
  0
VERTEX
  5
D20
  8
0
 10
355.0735294117646
 20
206.2351687834224
 30
0.0
  0
VERTEX
  5
D21
  8
0
 10
354.8725768716577
 20
206.2107286096256
 30
0.0
  0
VERTEX
  5
D22
  8
0
 10
354.682486631016
 20
206.169994986631
 30
0.0
  0
VERTEX
  5
D23
  8
0
 10
354.5032586898395
 20
206.1129679144385
 30
0.0
  0
VERTEX
  5
D24
  8
0
 10
354.3348930481283
 20
206.0396473930481
 30
0.0
  0
VERTEX
  5
D25
  8
0
 10
354.1773897058823
 20
205.9500334224599
 30
0.0
  0
VERTEX
  5
D26
  8
0
 10
354.0307486631016
 20
205.8441260026738
 30
0.0
  0
VERTEX
  5
D27
  8
0
 10
353.8949699197861
 20
205.7219251336898
 30
0.0
  0
VERTEX
  5
D28
  8
0
 10
353.772664605615
 20
205.585310828877
 30
0.0
  0
VERTEX
  5
D29
  8
0
 10
353.6664438502673
 20
205.4361631016043
 30
0.0
  0
VERTEX
  5
D2A
  8
0
 10
353.5763076537433
 20
205.2744819518716
 30
0.0
  0
VERTEX
  5
D2B
  8
0
 10
353.5022560160428
 20
205.1002673796791
 30
0.0
  0
VERTEX
  5
D2C
  8
0
 10
353.4442889371658
 20
204.9135193850267
 30
0.0
  0
VERTEX
  5
D2D
  8
0
 10
353.4024064171123
 20
204.7142379679144
 30
0.0
  0
VERTEX
  5
D2E
  8
0
 10
353.3766084558824
 20
204.5024231283422
 30
0.0
  0
VERTEX
  5
D2F
  8
0
 10
353.366895053476
 20
204.2780748663101
 30
0.0
  0
VERTEX
  5
D30
  8
0
 10
352.1302640374332
 20
204.4050802139037
 30
0.0
  0
VERTEX
  5
D31
  8
0
 10
352.172982118984
 20
204.7407148228609
 30
0.0
  0
VERTEX
  5
D32
  8
0
 10
352.2376336898396
 20
205.0557737299465
 30
0.0
  0
VERTEX
  5
D33
  8
0
 10
352.32421875
 20
205.3502569351604
 30
0.0
  0
VERTEX
  5
D34
  8
0
 10
352.4327372994652
 20
205.6241644385026
 30
0.0
  0
VERTEX
  5
D35
  8
0
 10
352.5631893382352
 20
205.8774962399733
 30
0.0
  0
VERTEX
  5
D36
  8
0
 10
352.7155748663101
 20
206.1102523395722
 30
0.0
  0
VERTEX
  5
D37
  8
0
 10
352.7999926888369
 20
206.2189145011698
 30
0.0
  0
VERTEX
  5
D38
  8
0
 10
352.8898938836899
 20
206.3224327372994
 30
0.0
  0
VERTEX
  5
D39
  8
0
 10
352.985278450869
 20
206.4208070479612
 30
0.0
  0
VERTEX
  5
D3A
  8
0
 10
353.0861463903743
 20
206.5140374331551
 30
0.0
  0
VERTEX
  5
D3B
  8
0
 10
353.3022434826203
 20
206.6840219752673
 30
0.0
  0
VERTEX
  5
D3C
  8
0
 10
353.5360962566845
 20
206.8313419117647
 30
0.0
  0
VERTEX
  5
D3D
  8
0
 10
353.7877047125668
 20
206.955997242647
 30
0.0
  0
VERTEX
  5
D3E
  8
0
 10
354.0570688502673
 20
207.0579879679144
 30
0.0
  0
VERTEX
  5
D3F
  8
0
 10
354.344188669786
 20
207.1373140875668
 30
0.0
  0
VERTEX
  5
D40
  8
0
 10
354.649064171123
 20
207.1939756016043
 30
0.0
  0
VERTEX
  5
D41
  8
0
 10
354.971695354278
 20
207.2279725100267
 30
0.0
  0
VERTEX
  5
D42
  8
0
 10
355.3120822192514
 20
207.2393048128342
 30
0.0
  0
VERTEX
  5
D43
  8
0
 10
355.6554979946525
 20
207.2270847259358
 30
0.0
  0
VERTEX
  5
D44
  8
0
 10
355.9805314171123
 20
207.1904244652406
 30
0.0
  0
VERTEX
  5
D45
  8
0
 10
356.2871824866311
 20
207.1293240307486
 30
0.0
  0
VERTEX
  5
D46
  8
0
 10
356.5754512032086
 20
207.0437834224599
 30
0.0
  0
VERTEX
  5
D47
  8
0
 10
356.8453375668449
 20
206.9338026403743
 30
0.0
  0
VERTEX
  5
D48
  8
0
 10
356.9733873663101
 20
206.8696471841577
 30
0.0
  0
VERTEX
  5
D49
  8
0
 10
357.0968415775401
 20
206.7993816844919
 30
0.0
  0
VERTEX
  5
D4A
  8
0
 10
357.2157002005347
 20
206.723006141377
 30
0.0
  0
VERTEX
  5
D4B
  8
0
 10
357.3299632352941
 20
206.6405205548128
 30
0.0
  0
VERTEX
  5
D4C
  8
0
 10
357.4396306818181
 20
206.5519249247994
 30
0.0
  0
VERTEX
  5
D4D
  8
0
 10
357.5447025401069
 20
206.4572192513369
 30
0.0
  0
VERTEX
  5
D4E
  8
0
 10
357.7374039104279
 20
206.2558489304813
 30
0.0
  0
VERTEX
  5
D4F
  8
0
 10
357.9044117647059
 20
206.0427807486631
 30
0.0
  0
VERTEX
  5
D50
  8
0
 10
358.0457261029412
 20
205.8180147058823
 30
0.0
  0
VERTEX
  5
D51
  8
0
 10
358.1613469251337
 20
205.581550802139
 30
0.0
  0
VERTEX
  5
D52
  8
0
 10
358.2512742312834
 20
205.3333890374331
 30
0.0
  0
VERTEX
  5
D53
  8
0
 10
358.3155080213904
 20
205.0735294117647
 30
0.0
  0
VERTEX
  5
D54
  8
0
 10
358.3540482954546
 20
204.8019719251337
 30
0.0
  0
VERTEX
  5
D55
  8
0
 10
358.366895053476
 20
204.5187165775401
 30
0.0
  0
VERTEX
  5
D56
  8
0
 10
358.363135026738
 20
204.3719710895722
 30
0.0
  0
VERTEX
  5
D57
  8
0
 10
358.3518549465241
 20
204.2258522727273
 30
0.0
  0
VERTEX
  5
D58
  8
0
 10
358.3330548128342
 20
204.0803601270053
 30
0.0
  0
VERTEX
  5
D59
  8
0
 10
358.3067346256685
 20
203.9354946524064
 30
0.0
  0
VERTEX
  5
D5A
  8
0
 10
358.2315340909091
 20
203.6476437165775
 30
0.0
  0
VERTEX
  5
D5B
  8
0
 10
358.126253342246
 20
203.3622994652406
 30
0.0
  0
VERTEX
  5
D5C
  8
0
 10
358.0611317680481
 20
203.2193140040107
 30
0.0
  0
VERTEX
  5
D5D
  8
0
 10
357.9860879010695
 20
203.0744485294117
 30
0.0
  0
VERTEX
  5
D5E
  8
0
 10
357.80623328877
 20
202.7790775401069
 30
0.0
  0
VERTEX
  5
D5F
  8
0
 10
357.5866895053476
 20
202.4761864973262
 30
0.0
  0
VERTEX
  5
D60
  8
0
 10
357.3274565508021
 20
202.1657754010695
 30
0.0
  0
VERTEX
  5
D61
  8
0
 10
357.0022142379679
 20
201.8223596256684
 30
0.0
  0
VERTEX
  5
D62
  8
0
 10
356.5846423796792
 20
201.4204545454545
 30
0.0
  0
VERTEX
  5
D63
  8
0
 10
356.0747409759358
 20
200.9600601604278
 30
0.0
  0
VERTEX
  5
D64
  8
0
 10
355.472510026738
 20
200.4411764705882
 30
0.0
  0
VERTEX
  5
D65
  8
0
 10
354.9795287433155
 20
200.0231868315508
 30
0.0
  0
VERTEX
  5
D66
  8
0
 10
354.5834725935829
 20
199.6783088235294
 30
0.0
  0
VERTEX
  5
D67
  8
0
 10
354.2843415775401
 20
199.4065424465241
 30
0.0
  0
VERTEX
  5
D68
  8
0
 10
354.0821356951872
 20
199.2078877005347
 30
0.0
  0
VERTEX
  5
D69
  8
0
 10
353.9350768716578
 20
199.0455798796791
 30
0.0
  0
VERTEX
  5
D6A
  8
0
 10
353.8013870320856
 20
198.8828542780748
 30
0.0
  0
VERTEX
  5
D6B
  8
0
 10
353.6810661764706
 20
198.7197108957219
 30
0.0
  0
VERTEX
  5
D6C
  8
0
 10
353.5741143048128
 20
198.5561497326203
 30
0.0
  0
SEQEND
  5
EB1
  8
0
  0
POLYLINE
  5
A0
  8
0
 66
     1
 10
0.0
 20
0.0
 30
0.0
 70
     1
  0
VERTEX
  5
D6D
  8
0
 10
359.5233121657754
 20
199.5187165775401
 30
0.0
  0
VERTEX
  5
D6E
  8
0
 10
360.7131517379679
 20
199.7058823529412
 30
0.0
  0
VERTEX
  5
D6F
  8
0
 10
360.7438064004011
 20
199.5322944518716
 30
0.0
  0
VERTEX
  5
D70
  8
0
 10
360.7856366978609
 20
199.3691510695187
 30
0.0
  0
VERTEX
  5
D71
  8
0
 10
360.8386426303475
 20
199.2164522058823
 30
0.0
  0
VERTEX
  5
D72
  8
0
 10
360.9028241978609
 20
199.0741978609626
 30
0.0
  0
VERTEX
  5
D73
  8
0
 10
360.9781814004011
 20
198.9423880347593
 30
0.0
  0
VERTEX
  5
D74
  8
0
 10
361.0647142379679
 20
198.8210227272727
 30
0.0
  0
VERTEX
  5
D75
  8
0
 10
361.1624227105615
 20
198.7101019385026
 30
0.0
  0
VERTEX
  5
D76
  8
0
 10
361.2713068181818
 20
198.6096256684492
 30
0.0
  0
VERTEX
  5
D77
  8
0
 10
361.391471006016
 20
198.5203250334224
 30
0.0
  0
VERTEX
  5
D78
  8
0
 10
361.5230197192514
 20
198.4429311497326
 30
0.0
  0
VERTEX
  5
D79
  8
0
 10
361.6659529578877
 20
198.3774440173797
 30
0.0
  0
VERTEX
  5
D7A
  8
0
 10
361.8202707219251
 20
198.3238636363636
 30
0.0
  0
VERTEX
  5
D7B
  8
0
 10
361.9859730113636
 20
198.2821900066845
 30
0.0
  0
VERTEX
  5
D7C
  8
0
 10
362.1630598262032
 20
198.2524231283422
 30
0.0
  0
VERTEX
  5
D7D
  8
0
 10
362.3515311664438
 20
198.2345630013369
 30
0.0
  0
VERTEX
  5
D7E
  8
0
 10
362.5513870320855
 20
198.2286096256684
 30
0.0
  0
VERTEX
  5
D7F
  8
0
 10
362.7519217914439
 20
198.2338841076203
 30
0.0
  0
VERTEX
  5
D80
  8
0
 10
362.9390875668449
 20
198.2497075534759
 30
0.0
  0
VERTEX
  5
D81
  8
0
 10
363.1128843582888
 20
198.2760799632353
 30
0.0
  0
VERTEX
  5
D82
  8
0
 10
363.2733121657754
 20
198.3130013368984
 30
0.0
  0
VERTEX
  5
D83
  8
0
 10
363.4203709893048
 20
198.3604716744652
 30
0.0
  0
VERTEX
  5
D84
  8
0
 10
363.554060828877
 20
198.4184909759358
 30
0.0
  0
VERTEX
  5
D85
  8
0
 10
363.674381684492
 20
198.4870592413102
 30
0.0
  0
VERTEX
  5
D86
  8
0
 10
363.7813335561497
 20
198.5661764705882
 30
0.0
  0
VERTEX
  5
D87
  8
0
 10
363.8753342245989
 20
198.6523959725936
 30
0.0
  0
VERTEX
  5
D88
  8
0
 10
363.9568014705882
 20
198.7422710561497
 30
0.0
  0
VERTEX
  5
D89
  8
0
 10
364.0257352941176
 20
198.8358017212566
 30
0.0
  0
VERTEX
  5
D8A
  8
0
 10
364.0821356951871
 20
198.9329879679144
 30
0.0
  0
VERTEX
  5
D8B
  8
0
 10
364.1260026737967
 20
199.033829796123
 30
0.0
  0
VERTEX
  5
D8C
  8
0
 10
364.1573362299465
 20
199.1383272058823
 30
0.0
  0
VERTEX
  5
D8D
  8
0
 10
364.1761363636363
 20
199.2464801971925
 30
0.0
  0
VERTEX
  5
D8E
  8
0
 10
364.1824030748663
 20
199.3582887700535
 30
0.0
  0
VERTEX
  5
D8F
  8
0
 10
364.1768674799465
 20
199.4575116978609
 30
0.0
  0
VERTEX
  5
D90
  8
0
 10
364.1602606951872
 20
199.5513034759358
 30
0.0
  0
VERTEX
  5
D91
  8
0
 10
364.1325827205882
 20
199.639664104278
 30
0.0
  0
VERTEX
  5
D92
  8
0
 10
364.0938335561497
 20
199.7225935828877
 30
0.0
  0
VERTEX
  5
D93
  8
0
 10
364.0440132018717
 20
199.8000919117647
 30
0.0
  0
VERTEX
  5
D94
  8
0
 10
363.983121657754
 20
199.8721590909091
 30
0.0
  0
VERTEX
  5
D95
  8
0
 10
363.9111589237968
 20
199.9387951203208
 30
0.0
  0
VERTEX
  5
D96
  8
0
 10
363.828125
 20
200.0
 30
0.0
  0
VERTEX
  5
D97
  8
0
 10
363.7548044786096
 20
200.0414647393048
 30
0.0
  0
VERTEX
  5
D98
  8
0
 10
363.6585060160428
 20
200.0856450534759
 30
0.0
  0
VERTEX
  5
D99
  8
0
 10
363.3969752673797
 20
200.1821524064171
 30
0.0
  0
VERTEX
  5
D9A
  8
0
 10
363.0435327540107
 20
200.2895220588235
 30
0.0
  0
VERTEX
  5
D9B
  8
0
 10
362.5981784759358
 20
200.4077540106952
 30
0.0
  0
VERTEX
  5
D9C
  8
0
 10
361.987174131016
 20
200.5692262700535
 30
0.0
  0
VERTEX
  5
D9D
  8
0
 10
361.4776905080214
 20
200.7194184491978
 30
0.0
  0
VERTEX
  5
D9E
  8
0
 10
361.0697276069519
 20
200.8583305481283
 30
0.0
  0
VERTEX
  5
D9F
  8
0
 10
360.7632854278075
 20
200.9859625668449
 30
0.0
  0
VERTEX
  5
DA0
  8
0
 10
360.6393089906417
 20
201.0498830213903
 30
0.0
  0
VERTEX
  5
DA1
  8
0
 10
360.5230614973262
 20
201.1196524064171
 30
0.0
  0
VERTEX
  5
DA2
  8
0
 10
360.4145429478609
 20
201.1952707219251
 30
0.0
  0
VERTEX
  5
DA3
  8
0
 10
360.3137533422459
 20
201.2767379679144
 30
0.0
  0
VERTEX
  5
DA4
  8
0
 10
360.2206926804813
 20
201.364054144385
 30
0.0
  0
VERTEX
  5
DA5
  8
0
 10
360.1353609625668
 20
201.4572192513369
 30
0.0
  0
VERTEX
  5
DA6
  8
0
 10
360.0577581885027
 20
201.55623328877
 30
0.0
  0
VERTEX
  5
DA7
  8
0
 10
359.9878843582887
 20
201.6610962566845
 30
0.0
  0
VERTEX
  5
DA8
  8
0
 10
359.926000584893
 20
201.7702936998663
 30
0.0
  0
VERTEX
  5
DA9
  8
0
 10
359.8723679812833
 20
201.8823111631016
 30
0.0
  0
VERTEX
  5
DAA
  8
0
 10
359.8269865474598
 20
201.9971486463903
 30
0.0
  0
VERTEX
  5
DAB
  8
0
 10
359.7898562834224
 20
202.1148061497326
 30
0.0
  0
VERTEX
  5
DAC
  8
0
 10
359.7609771891711
 20
202.2352836731283
 30
0.0
  0
VERTEX
  5
DAD
  8
0
 10
359.7403492647059
 20
202.3585812165775
 30
0.0
  0
VERTEX
  5
DAE
  8
0
 10
359.7279725100267
 20
202.4846987800802
 30
0.0
  0
VERTEX
  5
DAF
  8
0
 10
359.7238469251337
 20
202.6136363636363
 30
0.0
  0
VERTEX
  5
DB0
  8
0
 10
359.7374247994653
 20
202.846549131016
 30
0.0
  0
VERTEX
  5
DB1
  8
0
 10
359.7781584224599
 20
203.0706885026738
 30
0.0
  0
VERTEX
  5
DB2
  8
0
 10
359.8460477941177
 20
203.2860544786096
 30
0.0
  0
VERTEX
  5
DB3
  8
0
 10
359.9410929144385
 20
203.4926470588235
 30
0.0
  0
VERTEX
  5
DB4
  8
0
 10
360.0595337566845
 20
203.6862884358289
 30
0.0
  0
VERTEX
  5
DB5
  8
0
 10
360.1976102941176
 20
203.862800802139
 30
0.0
  0
VERTEX
  5
DB6
  8
0
 10
360.355322526738
 20
204.022184157754
 30
0.0
  0
VERTEX
  5
DB7
  8
0
 10
360.5326704545454
 20
204.1644385026738
 30
0.0
  0
VERTEX
  5
DB8
  8
0
 10
360.6857870989305
 20
204.2640792112299
 30
0.0
  0
VERTEX
  5
DB9
  8
0
 10
360.864388368984
 20
204.3557820855615
 30
0.0
  0
VERTEX
  5
DBA
  8
0
 10
361.0684742647059
 20
204.4395471256684
 30
0.0
  0
VERTEX
  5
DBB
  8
0
 10
361.2980447860962
 20
204.5153743315508
 30
0.0
  0
VERTEX
  5
DBC
  8
0
 10
361.5447443181818
 20
204.5782503342246
 30
0.0
  0
VERTEX
  5
DBD
  8
0
 10
361.8002172459893
 20
204.6231617647059
 30
0.0
  0
VERTEX
  5
DBE
  8
0
 10
362.0644635695187
 20
204.6501086229947
 30
0.0
  0
VERTEX
  5
DBF
  8
0
 10
362.33748328877
 20
204.6590909090909
 30
0.0
  0
VERTEX
  5
DC0
  8
0
 10
362.543188084893
 20
204.6553308823529
 30
0.0
  0
VERTEX
  5
DC1
  8
0
 10
362.7425217245989
 20
204.644050802139
 30
0.0
  0
VERTEX
  5
DC2
  8
0
 10
362.9354842078877
 20
204.6252506684492
 30
0.0
  0
VERTEX
  5
DC3
  8
0
 10
363.1220755347593
 20
204.5989304812834
 30
0.0
  0
VERTEX
  5
DC4
  8
0
 10
363.3022957052139
 20
204.5650902406417
 30
0.0
  0
VERTEX
  5
DC5
  8
0
 10
363.4761447192514
 20
204.5237299465241
 30
0.0
  0
VERTEX
  5
DC6
  8
0
 10
363.6436225768716
 20
204.4748495989305
 30
0.0
  0
VERTEX
  5
DC7
  8
0
 10
363.8047292780748
 20
204.418449197861
 30
0.0
  0
VERTEX
  5
DC8
  8
0
 10
363.9574803643048
 20
204.3556254177807
 30
0.0
  0
VERTEX
  5
DC9
  8
0
 10
364.0998913770053
 20
204.2874749331551
 30
0.0
  0
VERTEX
  5
DCA
  8
0
 10
364.2319623161764
 20
204.2139977439839
 30
0.0
  0
VERTEX
  5
DCB
  8
0
 10
364.3536931818181
 20
204.1351938502673
 30
0.0
  0
VERTEX
  5
DCC
  8
0
 10
364.4650839739305
 20
204.0510632520053
 30
0.0
  0
VERTEX
  5
DCD
  8
0
 10
364.5661346925133
 20
203.9616059491979
 30
0.0
  0
VERTEX
  5
DCE
  8
0
 10
364.6568453375668
 20
203.8668219418449
 30
0.0
  0
VERTEX
  5
DCF
  8
0
 10
364.7372159090909
 20
203.7667112299465
 30
0.0
  0
VERTEX
  5
DD0
  8
0
 10
364.8094919786096
 20
203.659602690508
 30
0.0
  0
VERTEX
  5
DD1
  8
0
 10
364.875919117647
 20
203.5438252005348
 30
0.0
  0
VERTEX
  5
DD2
  8
0
 10
364.9364973262032
 20
203.4193787600267
 30
0.0
  0
VERTEX
  5
DD3
  8
0
 10
364.991226604278
 20
203.286263368984
 30
0.0
  0
VERTEX
  5
DD4
  8
0
 10
365.0401069518716
 20
203.1444790274064
 30
0.0
  0
VERTEX
  5
DD5
  8
0
 10
365.0831383689839
 20
202.9940257352941
 30
0.0
  0
VERTEX
  5
DD6
  8
0
 10
365.1203208556149
 20
202.834903492647
 30
0.0
  0
VERTEX
  5
DD7
  8
0
 10
365.1516544117647
 20
202.6671122994652
 30
0.0
  0
VERTEX
  5
DD8
  8
0
 10
363.9751838235294
 20
202.5066844919786
 30
0.0
  0
VERTEX
  5
DD9
  8
0
 10
363.9503780915775
 20
202.6399565508021
 30
0.0
  0
VERTEX
  5
DDA
  8
0
 10
363.9160678475936
 20
202.7657085561497
 30
0.0
  0
VERTEX
  5
DDB
  8
0
 10
363.8722530915775
 20
202.8839405080213
 30
0.0
  0
VERTEX
  5
DDC
  8
0
 10
363.8189338235294
 20
202.9946524064171
 30
0.0
  0
VERTEX
  5
DDD
  8
0
 10
363.7561100434492
 20
203.0978442513369
 30
0.0
  0
VERTEX
  5
DDE
  8
0
 10
363.6837817513369
 20
203.1935160427807
 30
0.0
  0
VERTEX
  5
DDF
  8
0
 10
363.6019489471926
 20
203.2816677807486
 30
0.0
  0
VERTEX
  5
DE0
  8
0
 10
363.510611631016
 20
203.3622994652406
 30
0.0
  0
VERTEX
  5
DE1
  8
0
 10
363.4095609124331
 20
203.434366644385
 30
0.0
  0
VERTEX
  5
DE2
  8
0
 10
363.2985879010695
 20
203.4968248663101
 30
0.0
  0
VERTEX
  5
DE3
  8
0
 10
363.1776925969251
 20
203.549674131016
 30
0.0
  0
VERTEX
  5
DE4
  8
0
 10
363.046875
 20
203.5929144385026
 30
0.0
  0
VERTEX
  5
DE5
  8
0
 10
362.9061351102941
 20
203.62654578877
 30
0.0
  0
VERTEX
  5
DE6
  8
0
 10
362.7554729278075
 20
203.6505681818182
 30
0.0
  0
VERTEX
  5
DE7
  8
0
 10
362.5948884525401
 20
203.664981617647
 30
0.0
  0
VERTEX
  5
DE8
  8
0
 10
362.4243816844919
 20
203.6697860962567
 30
0.0
  0
VERTEX
  5
DE9
  8
0
 10
362.2245780414438
 20
203.6655038435829
 30
0.0
  0
VERTEX
  5
DEA
  8
0
 10
362.0396056149733
 20
203.6526570855615
 30
0.0
  0
VERTEX
  5
DEB
  8
0
 10
361.8694644050802
 20
203.6312458221925
 30
0.0
  0
VERTEX
  5
DEC
  8
0
 10
361.7141544117647
 20
203.6012700534759
 30
0.0
  0
VERTEX
  5
DED
  8
0
 10
361.5736756350267
 20
203.5627297794118
 30
0.0
  0
VERTEX
  5
DEE
  8
0
 10
361.4480280748663
 20
203.515625
 30
0.0
  0
VERTEX
  5
DEF
  8
0
 10
361.3372117312834
 20
203.4599557152407
 30
0.0
  0
VERTEX
  5
DF0
  8
0
 10
361.241226604278
 20
203.3957219251337
 30
0.0
  0
VERTEX
  5
DF1
  8
0
 10
361.1581926804812
 20
203.3257436497326
 30
0.0
  0
VERTEX
  5
DF2
  8
0
 10
361.086229946524
 20
203.2528409090909
 30
0.0
  0
VERTEX
  5
DF3
  8
0
 10
361.0253384024064
 20
203.1770137032085
 30
0.0
  0
VERTEX
  5
DF4
  8
0
 10
360.9755180481283
 20
203.0982620320855
 30
0.0
  0
VERTEX
  5
DF5
  8
0
 10
360.9367688836898
 20
203.0165858957219
 30
0.0
  0
VERTEX
  5
DF6
  8
0
 10
360.9090909090909
 20
202.9319852941176
 30
0.0
  0
VERTEX
  5
DF7
  8
0
 10
360.8924841243315
 20
202.8444602272727
 30
0.0
  0
VERTEX
  5
DF8
  8
0
 10
360.8869485294118
 20
202.7540106951871
 30
0.0
  0
VERTEX
  5
DF9
  8
0
 10
360.8961397058824
 20
202.6399565508021
 30
0.0
  0
VERTEX
  5
DFA
  8
0
 10
360.9237132352941
 20
202.5317513368984
 30
0.0
  0
VERTEX
  5
DFB
  8
0
 10
360.969669117647
 20
202.4293950534759
 30
0.0
  0
VERTEX
  5
DFC
  8
0
 10
361.0340073529412
 20
202.3328877005347
 30
0.0
  0
VERTEX
  5
DFD
  8
0
 10
361.1179812834225
 20
202.2401403743315
 30
0.0
  0
VERTEX
  5
DFE
  8
0
 10
361.2228442513369
 20
202.1557486631016
 30
0.0
  0
VERTEX
  5
DFF
  8
0
 10
361.3485962566845
 20
202.0797125668449
 30
0.0
  0
VERTEX
  5
E00
  8
0
 10
361.4952372994652
 20
202.0120320855615
 30
0.0
  0
VERTEX
  5
E01
  8
0
 10
361.8511864973262
 20
201.9017379679144
 30
0.0
  0
VERTEX
  5
E02
  8
0
 10
362.5580715240641
 20
201.7045454545454
 30
0.0
  0
VERTEX
  5
E03
  8
0
 10
363.1481868315508
 20
201.5418198529412
 30
0.0
  0
VERTEX
  5
E04
  8
0
 10
363.6417947860963
 20
201.3945521390374
 30
0.0
  0
VERTEX
  5
E05
  8
0
 10
364.0388953877006
 20
201.2627423128342
 30
0.0
  0
VERTEX
  5
E06
  8
0
 10
364.3394886363636
 20
201.1463903743315
 30
0.0
  0
VERTEX
  5
E07
  8
0
 10
364.4622639538769
 20
201.088997743984
 30
0.0
  0
VERTEX
  5
E08
  8
0
 10
364.5782503342245
 20
201.0254428475936
 30
0.0
  0
VERTEX
  5
E09
  8
0
 10
364.6874477774064
 20
200.9557256851604
 30
0.0
  0
VERTEX
  5
E0A
  8
0
 10
364.7898562834224
 20
200.8798462566845
 30
0.0
  0
VERTEX
  5
E0B
  8
0
 10
364.8854758522726
 20
200.7978045621658
 30
0.0
  0
VERTEX
  5
E0C
  8
0
 10
364.9743064839572
 20
200.7096006016043
 30
0.0
  0
VERTEX
  5
E0D
  8
0
 10
365.0563481784759
 20
200.615234375
 30
0.0
  0
VERTEX
  5
E0E
  8
0
 10
365.1316009358289
 20
200.5147058823529
 30
0.0
  0
VERTEX
  5
E0F
  8
0
 10
365.1989680815508
 20
200.4079629010695
 30
0.0
  0
VERTEX
  5
E10
  8
0
 10
365.2573529411765
 20
200.2949532085561
 30
0.0
  0
VERTEX
  5
E11
  8
0
 10
365.3067555147059
 20
200.1756768048128
 30
0.0
  0
VERTEX
  5
E12
  8
0
 10
365.347175802139
 20
200.0501336898396
 30
0.0
  0
VERTEX
  5
E13
  8
0
 10
365.3786138034759
 20
199.9183238636364
 30
0.0
  0
VERTEX
  5
E14
  8
0
 10
365.4010695187166
 20
199.7802473262032
 30
0.0
  0
VERTEX
  5
E15
  8
0
 10
365.4145429478609
 20
199.6359040775401
 30
0.0
  0
VERTEX
  5
E16
  8
0
 10
365.4190340909091
 20
199.485294117647
 30
0.0
  0
VERTEX
  5
E17
  8
0
 10
365.4135507185829
 20
199.3359897225936
 30
0.0
  0
VERTEX
  5
E18
  8
0
 10
365.3971006016043
 20
199.1888786764706
 30
0.0
  0
VERTEX
  5
E19
  8
0
 10
365.3696837399733
 20
199.043960979278
 30
0.0
  0
VERTEX
  5
E1A
  8
0
 10
365.3313001336899
 20
198.901236631016
 30
0.0
  0
VERTEX
  5
E1B
  8
0
 10
365.2819497827541
 20
198.7607056316845
 30
0.0
  0
VERTEX
  5
E1C
  8
0
 10
365.2216326871658
 20
198.6223679812834
 30
0.0
  0
VERTEX
  5
E1D
  8
0
 10
365.1503488469252
 20
198.4862236798128
 30
0.0
  0
VERTEX
  5
E1E
  8
0
 10
365.0680982620321
 20
198.3522727272727
 30
0.0
  0
VERTEX
  5
E1F
  8
0
 10
364.9755076036096
 20
198.2231784759358
 30
0.0
  0
VERTEX
  5
E20
  8
0
 10
364.8732035427807
 20
198.1016042780748
 30
0.0
  0
VERTEX
  5
E21
  8
0
 10
364.7611860795454
 20
197.9875501336898
 30
0.0
  0
VERTEX
  5
E22
  8
0
 10
364.6394552139037
 20
197.8810160427807
 30
0.0
  0
VERTEX
  5
E23
  8
0
 10
364.5080109458556
 20
197.7820020053476
 30
0.0
  0
VERTEX
  5
E24
  8
0
 10
364.366853275401
 20
197.6905080213903
 30
0.0
  0
VERTEX
  5
E25
  8
0
 10
364.21598220254
 20
197.6065340909091
 30
0.0
  0
VERTEX
  5
E26
  8
0
 10
364.0553977272727
 20
197.5300802139037
 30
0.0
  0
VERTEX
  5
E27
  8
0
 10
363.8872409759358
 20
197.461929729278
 30
0.0
  0
VERTEX
  5
E28
  8
0
 10
363.7136530748663
 20
197.4028659759358
 30
0.0
  0
VERTEX
  5
E29
  8
0
 10
363.5346340240641
 20
197.352888953877
 30
0.0
  0
VERTEX
  5
E2A
  8
0
 10
363.3501838235294
 20
197.3119986631016
 30
0.0
  0
VERTEX
  5
E2B
  8
0
 10
363.160302473262
 20
197.2801951036096
 30
0.0
  0
VERTEX
  5
E2C
  8
0
 10
362.964989973262
 20
197.257478275401
 30
0.0
  0
VERTEX
  5
E2D
  8
0
 10
362.7642463235294
 20
197.2438481784759
 30
0.0
  0
VERTEX
  5
E2E
  8
0
 10
362.5580715240641
 20
197.2393048128342
 30
0.0
  0
VERTEX
  5
E2F
  8
0
 10
362.2224369151069
 20
197.2482870989305
 30
0.0
  0
VERTEX
  5
E30
  8
0
 10
361.9073780080214
 20
197.2752339572192
 30
0.0
  0
VERTEX
  5
E31
  8
0
 10
361.6128948028074
 20
197.3201453877005
 30
0.0
  0
VERTEX
  5
E32
  8
0
 10
361.3389872994652
 20
197.3830213903743
 30
0.0
  0
VERTEX
  5
E33
  8
0
 10
361.0856554979947
 20
197.4638619652406
 30
0.0
  0
VERTEX
  5
E34
  8
0
 10
360.8528993983957
 20
197.5626671122994
 30
0.0
  0
VERTEX
  5
E35
  8
0
 10
360.6407190006685
 20
197.6794368315508
 30
0.0
  0
VERTEX
  5
E36
  8
0
 10
360.4491143048128
 20
197.8141711229946
 30
0.0
  0
VERTEX
  5
E37
  8
0
 10
360.2759964070856
 20
197.9665566510695
 30
0.0
  0
VERTEX
  5
E38
  8
0
 10
360.1192764037433
 20
198.1362800802139
 30
0.0
  0
VERTEX
  5
E39
  8
0
 10
359.978954294786
 20
198.3233414104278
 30
0.0
  0
VERTEX
  5
E3A
  8
0
 10
359.8550300802139
 20
198.5277406417112
 30
0.0
  0
VERTEX
  5
E3B
  8
0
 10
359.7475037600267
 20
198.7494777740642
 30
0.0
  0
VERTEX
  5
E3C
  8
0
 10
359.6563753342245
 20
198.9885528074866
 30
0.0
  0
VERTEX
  5
E3D
  8
0
 10
359.5816448028075
 20
199.2449657419786
 30
0.0
  0
SEQEND
  5
EB2
  8
0
  0
POLYLINE
  5
A1
  8
0
 66
     1
 10
0.0
 20
0.0
 30
0.0
 70
     1
  0
VERTEX
  5
E3E
  8
0
 10
366.2144886363636
 20
197.3997326203208
 30
0.0
  0
VERTEX
  5
E3F
  8
0
 10
366.2144886363636
 20
198.3756684491978
 30
0.0
  0
VERTEX
  5
E40
  8
0
 10
370.7332052139037
 20
203.5628342245989
 30
0.0
  0
VERTEX
  5
E41
  8
0
 10
370.0096089572193
 20
203.5327540106952
 30
0.0
  0
VERTEX
  5
E42
  8
0
 10
369.3762533422459
 20
203.5227272727273
 30
0.0
  0
VERTEX
  5
E43
  8
0
 10
366.481868315508
 20
203.5227272727273
 30
0.0
  0
VERTEX
  5
E44
  8
0
 10
366.481868315508
 20
204.4986631016043
 30
0.0
  0
VERTEX
  5
E45
  8
0
 10
372.2840073529412
 20
204.4986631016043
 30
0.0
  0
VERTEX
  5
E46
  8
0
 10
372.2840073529412
 20
203.7032085561497
 30
0.0
  0
VERTEX
  5
E47
  8
0
 10
368.4404244652406
 20
199.1978609625668
 30
0.0
  0
VERTEX
  5
E48
  8
0
 10
367.6984458556149
 20
198.3756684491978
 30
0.0
  0
VERTEX
  5
E49
  8
0
 10
368.4822025401069
 20
198.4207887700534
 30
0.0
  0
VERTEX
  5
E4A
  8
0
 10
369.2158255347593
 20
198.4358288770053
 30
0.0
  0
VERTEX
  5
E4B
  8
0
 10
372.4979110962566
 20
198.4358288770053
 30
0.0
  0
VERTEX
  5
E4C
  8
0
 10
372.4979110962566
 20
197.3997326203208
 30
0.0
  0
SEQEND
  5
EB3
  8
0
  0
POLYLINE
  5
A2
  8
0
 66
     1
 10
0.0
 20
0.0
 30
0.0
 70
     1
  0
VERTEX
  5
E4D
  8
0
 10
376.3214405080214
 20
198.475935828877
 30
0.0
  0
VERTEX
  5
E4E
  8
0
 10
376.4952372994653
 20
197.413101604278
 30
0.0
  0
VERTEX
  5
E4F
  8
0
 10
376.2479110962566
 20
197.3663101604278
 30
0.0
  0
VERTEX
  5
E50
  8
0
 10
376.0139538770053
 20
197.3328877005347
 30
0.0
  0
VERTEX
  5
E51
  8
0
 10
375.7933656417112
 20
197.3128342245989
 30
0.0
  0
VERTEX
  5
E52
  8
0
 10
375.5861463903743
 20
197.3061497326203
 30
0.0
  0
VERTEX
  5
E53
  8
0
 10
375.2769886363636
 20
197.3191009358289
 30
0.0
  0
VERTEX
  5
E54
  8
0
 10
375.1361965240641
 20
197.3352899398396
 30
0.0
  0
VERTEX
  5
E55
  8
0
 10
375.0045955882352
 20
197.3579545454545
 30
0.0
  0
VERTEX
  5
E56
  8
0
 10
374.882185828877
 20
197.3870947526738
 30
0.0
  0
VERTEX
  5
E57
  8
0
 10
374.7689672459893
 20
197.4227105614973
 30
0.0
  0
VERTEX
  5
E58
  8
0
 10
374.6649398395722
 20
197.4648019719251
 30
0.0
  0
VERTEX
  5
E59
  8
0
 10
374.5701036096257
 20
197.5133689839572
 30
0.0
  0
VERTEX
  5
E5A
  8
0
 10
374.4029913101604
 20
197.6251253342246
 30
0.0
  0
VERTEX
  5
E5B
  8
0
 10
374.3294618983957
 20
197.6871135528075
 30
0.0
  0
VERTEX
  5
E5C
  8
0
 10
374.2626169786096
 20
197.7531751336898
 30
0.0
  0
VERTEX
  5
E5D
  8
0
 10
374.2024565508021
 20
197.8233100768716
 30
0.0
  0
VERTEX
  5
E5E
  8
0
 10
374.1489806149732
 20
197.897518382353
 30
0.0
  0
VERTEX
  5
E5F
  8
0
 10
374.102189171123
 20
197.9758000501337
 30
0.0
  0
VERTEX
  5
E60
  8
0
 10
374.0620822192514
 20
198.0581550802139
 30
0.0
  0
VERTEX
  5
E61
  8
0
 10
374.0276153074867
 20
198.1541924298128
 30
0.0
  0
VERTEX
  5
E62
  8
0
 10
373.9977439839572
 20
198.2735210561497
 30
0.0
  0
VERTEX
  5
E63
  8
0
 10
373.9724682486631
 20
198.4161409592246
 30
0.0
  0
VERTEX
  5
E64
  8
0
 10
373.9517881016043
 20
198.5820521390374
 30
0.0
  0
VERTEX
  5
E65
  8
0
 10
373.9242145721925
 20
198.983748328877
 30
0.0
  0
VERTEX
  5
E66
  8
0
 10
373.9150233957219
 20
199.4786096256684
 30
0.0
  0
VERTEX
  5
E67
  8
0
 10
373.9150233957219
 20
203.5628342245989
 30
0.0
  0
VERTEX
  5
E68
  8
0
 10
373.0326704545454
 20
203.5628342245989
 30
0.0
  0
VERTEX
  5
E69
  8
0
 10
373.0326704545454
 20
204.4986631016043
 30
0.0
  0
VERTEX
  5
E6A
  8
0
 10
373.9150233957219
 20
204.4986631016043
 30
0.0
  0
VERTEX
  5
E6B
  8
0
 10
373.9150233957219
 20
206.2566844919786
 30
0.0
  0
VERTEX
  5
E6C
  8
0
 10
375.1115474598931
 20
206.9786096256684
 30
0.0
  0
VERTEX
  5
E6D
  8
0
 10
375.1115474598931
 20
204.4986631016043
 30
0.0
  0
VERTEX
  5
E6E
  8
0
 10
376.3214405080214
 20
204.4986631016043
 30
0.0
  0
VERTEX
  5
E6F
  8
0
 10
376.3214405080214
 20
203.5628342245989
 30
0.0
  0
VERTEX
  5
E70
  8
0
 10
375.1115474598931
 20
203.5628342245989
 30
0.0
  0
VERTEX
  5
E71
  8
0
 10
375.1115474598931
 20
199.4117647058823
 30
0.0
  0
VERTEX
  5
E72
  8
0
 10
375.1155163770054
 20
199.1773897058823
 30
0.0
  0
VERTEX
  5
E73
  8
0
 10
375.1274231283423
 20
198.9889705882352
 30
0.0
  0
VERTEX
  5
E74
  8
0
 10
375.1472677139038
 20
198.8465073529411
 30
0.0
  0
VERTEX
  5
E75
  8
0
 10
375.1750501336899
 20
198.75
 30
0.0
  0
VERTEX
  5
E76
  8
0
 10
375.2118148395722
 20
198.6802306149733
 30
0.0
  0
VERTEX
  5
E77
  8
0
 10
375.2586062834224
 20
198.6179812834224
 30
0.0
  0
VERTEX
  5
E78
  8
0
 10
375.3154244652407
 20
198.5632520053476
 30
0.0
  0
VERTEX
  5
E79
  8
0
 10
375.3822693850267
 20
198.5160427807486
 30
0.0
  0
VERTEX
  5
E7A
  8
0
 10
375.4618566176471
 20
198.4780247326203
 30
0.0
  0
VERTEX
  5
E7B
  8
0
 10
375.5569017379679
 20
198.4508689839572
 30
0.0
  0
VERTEX
  5
E7C
  8
0
 10
375.6674047459893
 20
198.4345755347593
 30
0.0
  0
VERTEX
  5
E7D
  8
0
 10
375.7933656417112
 20
198.4291443850267
 30
0.0
  0
VERTEX
  5
E7E
  8
0
 10
376.0256517379679
 20
198.4408422459893
 30
0.0
  0
SEQEND
  5
EB4
  8
0
  0
ENDSEC
  0
EOF
