  0
SECTION
  2
HEADER
  9
$ACADVER
  1
AC1009
  9
$DWGCODEPAGE
  3
ansi_1250
  9
$INSBASE
 10
0.0
 20
0.0
 30
0.0
  9
$EXTMIN
 10
958.5313800857906
 20
7.248075154822971
 30
0.0
  9
$EXTMAX
 10
1636.130260158335
 20
861.2483266535583
 30
0.0
  9
$LIMMIN
 10
0.0
 20
0.0
  9
$LIMMAX
 10
12.0
 20
9.0
  9
$ORTHOMODE
 70
     0
  9
$REGENMODE
 70
     1
  9
$FILLMODE
 70
     1
  9
$QTEXTMODE
 70
     0
  9
$MIRRTEXT
 70
     1
  9
$DRAGMODE
 70
     2
  9
$LTSCALE
 40
1.0
  9
$OSMODE
 70
    37
  9
$ATTMODE
 70
     1
  9
$TEXTSIZE
 40
0.2
  9
$TRACEWID
 40
0.05
  9
$TEXTSTYLE
  7
STANDARD
  9
$CLAYER
  8
0
  9
$CELTYPE
  6
BYLAYER
  9
$CECOLOR
 62
   256
  9
$DIMSCALE
 40
1.0
  9
$DIMASZ
 40
0.18
  9
$DIMEXO
 40
0.0625
  9
$DIMDLI
 40
0.38
  9
$DIMRND
 40
0.0
  9
$DIMDLE
 40
0.0
  9
$DIMEXE
 40
0.18
  9
$DIMTP
 40
0.0
  9
$DIMTM
 40
0.0
  9
$DIMTXT
 40
0.18
  9
$DIMCEN
 40
0.09
  9
$DIMTSZ
 40
0.0
  9
$DIMTOL
 70
     0
  9
$DIMLIM
 70
     0
  9
$DIMTIH
 70
     1
  9
$DIMTOH
 70
     1
  9
$DIMSE1
 70
     0
  9
$DIMSE2
 70
     0
  9
$DIMTAD
 70
     0
  9
$DIMZIN
 70
     0
  9
$DIMBLK
  1

  9
$DIMASO
 70
     1
  9
$DIMSHO
 70
     1
  9
$DIMPOST
  1

  9
$DIMAPOST
  1

  9
$DIMALT
 70
     0
  9
$DIMALTD
 70
     2
  9
$DIMALTF
 40
25.4
  9
$DIMLFAC
 40
1.0
  9
$DIMTOFL
 70
     0
  9
$DIMTVP
 40
0.0
  9
$DIMTIX
 70
     0
  9
$DIMSOXD
 70
     0
  9
$DIMSAH
 70
     0
  9
$DIMBLK1
  1

  9
$DIMBLK2
  1

  9
$DIMSTYLE
  2
STANDARD
  9
$DIMCLRD
 70
     0
  9
$DIMCLRE
 70
     0
  9
$DIMCLRT
 70
     0
  9
$DIMTFAC
 40
1.0
  9
$DIMGAP
 40
0.09
  9
$LUNITS
 70
     2
  9
$LUPREC
 70
     4
  9
$SKETCHINC
 40
0.1
  9
$FILLETRAD
 40
0.5
  9
$AUNITS
 70
     0
  9
$AUPREC
 70
     0
  9
$MENU
  1
.
  9
$ELEVATION
 40
0.0
  9
$PELEVATION
 40
0.0
  9
$THICKNESS
 40
0.0
  9
$LIMCHECK
 70
     0
  9
$CHAMFERA
 40
0.0
  9
$CHAMFERB
 40
0.0
  9
$SKPOLY
 70
     0
  9
$TDCREATE
 40
2454910.5
  9
$TDUPDATE
 40
2457799.533043171
  9
$TDINDWG
 40
0.0000000116
  9
$TDUSRTIMER
 40
0.0000000116
  9
$USRTIMER
 70
     1
  9
$ANGBASE
 50
0.0
  9
$ANGDIR
 70
     0
  9
$PDMODE
 70
     0
  9
$PDSIZE
 40
0.0
  9
$PLINEWID
 40
0.0
  9
$COORDS
 70
     1
  9
$SPLFRAME
 70
     0
  9
$SPLINETYPE
 70
     6
  9
$SPLINESEGS
 70
     8
  9
$ATTDIA
 70
     0
  9
$ATTREQ
 70
     1
  9
$HANDLING
 70
     1
  9
$HANDSEED
  5
5DB
  9
$SURFTAB1
 70
     6
  9
$SURFTAB2
 70
     6
  9
$SURFTYPE
 70
     6
  9
$SURFU
 70
     6
  9
$SURFV
 70
     6
  9
$UCSNAME
  2

  9
$UCSORG
 10
0.0
 20
0.0
 30
0.0
  9
$UCSXDIR
 10
1.0
 20
0.0
 30
0.0
  9
$UCSYDIR
 10
0.0
 20
1.0
 30
0.0
  9
$PUCSNAME
  2

  9
$PUCSORG
 10
0.0
 20
0.0
 30
0.0
  9
$PUCSXDIR
 10
1.0
 20
0.0
 30
0.0
  9
$PUCSYDIR
 10
0.0
 20
1.0
 30
0.0
  9
$USERI1
 70
     0
  9
$USERI2
 70
     0
  9
$USERI3
 70
     0
  9
$USERI4
 70
     0
  9
$USERI5
 70
     0
  9
$USERR1
 40
0.0
  9
$USERR2
 40
0.0
  9
$USERR3
 40
0.0
  9
$USERR4
 40
0.0
  9
$USERR5
 40
0.0
  9
$WORLDVIEW
 70
     1
  9
$SHADEDGE
 70
     3
  9
$SHADEDIF
 70
    70
  9
$TILEMODE
 70
     1
  9
$MAXACTVP
 70
    64
  9
$PLIMCHECK
 70
     0
  9
$PEXTMIN
 10
1.000000000000000E+20
 20
1.000000000000000E+20
 30
1.000000000000000E+20
  9
$PEXTMAX
 10
-1.000000000000000E+20
 20
-1.000000000000000E+20
 30
-1.000000000000000E+20
  9
$PLIMMIN
 10
0.0
 20
0.0
  9
$PLIMMAX
 10
12.0
 20
9.0
  9
$UNITMODE
 70
     0
  9
$VISRETAIN
 70
     1
  9
$PLINEGEN
 70
     0
  9
$PSLTSCALE
 70
     1
  0
ENDSEC
  0
SECTION
  2
TABLES
  0
TABLE
  2
VPORT
 70
     1
  0
VPORT
  2
*ACTIVE
 70
     0
 10
0.0
 20
0.0
 11
1.0
 21
1.0
 12
10.42990654205607
 22
4.5
 13
0.0
 23
0.0
 14
0.5
 24
0.5
 15
0.5
 25
0.5
 16
0.0
 26
0.0
 36
1.0
 17
0.0
 27
0.0
 37
0.0
 40
9.0
 41
1.972972972850329
 42
50.0
 43
0.0
 44
0.0
 50
0.0
 51
0.0
 71
     0
 72
   100
 73
     1
 74
     3
 75
     0
 76
     0
 77
     0
 78
     0
  0
ENDTAB
  0
TABLE
  2
LTYPE
 70
     2
  0
LTYPE
  2
CONTINUOUS
 70
     0
  3
Solid line
 72
    65
 73
     0
 40
0.0
  0
LTYPE
  2
CONTINUOUS2
 70
     0
  3
Solid Line
 72
    65
 73
     0
 40
0.0
  0
ENDTAB
  0
TABLE
  2
LAYER
 70
     2
  0
LAYER
  2
0
 70
     0
 62
     7
  6
CONTINUOUS
  0
LAYER
  2
WARSTWA_1
 70
     0
 62
    18
  6
CONTINUOUS
  0
ENDTAB
  0
TABLE
  2
STYLE
 70
     1
  0
STYLE
  2
STANDARD
 70
     0
 40
0.0
 41
1.0
 50
0.0
 71
     0
 42
0.2
  3
txt
  4

  0
ENDTAB
  0
TABLE
  2
VIEW
 70
     0
  0
ENDTAB
  0
TABLE
  2
UCS
 70
     0
  0
ENDTAB
  0
TABLE
  2
APPID
 70
     1
  0
APPID
  2
ACAD
 70
     0
  0
ENDTAB
  0
TABLE
  2
DIMSTYLE
 70
     1
  0
DIMSTYLE
  2
STANDARD
 70
     0
  3

  4

  5

  6

  7

 40
1.0
 41
0.18
 42
0.0625
 43
0.38
 44
0.18
 45
0.0
 46
0.0
 47
0.0
 48
0.0
140
0.18
141
0.09
142
0.0
143
25.4
144
1.0
145
0.0
146
1.0
147
0.09
 71
     0
 72
     0
 73
     1
 74
     1
 75
     0
 76
     0
 77
     0
 78
     0
170
     0
171
     2
172
     0
173
     0
174
     0
175
     0
176
     0
177
     0
178
     0
  0
ENDTAB
  0
ENDSEC
  0
SECTION
  2
BLOCKS
  0
BLOCK
  8
0
  2
$MODEL_SPACE
 70
     0
 10
0.0
 20
0.0
 30
0.0
  3
$MODEL_SPACE
  1

  0
ENDBLK
  5
21
  8
0
  0
BLOCK
 67
     1
  8
0
  2
$PAPER_SPACE
 70
     0
 10
0.0
 20
0.0
 30
0.0
  3
$PAPER_SPACE
  1

  0
ENDBLK
  5
1D
 67
     1
  8
0
  0
ENDSEC
  0
SECTION
  2
ENTITIES
  0
POLYLINE
  5
70
  8
WARSTWA_1
 66
     1
 10
0.0
 20
0.0
 30
0.0
 70
     1
  0
VERTEX
  5
87
  8
WARSTWA_1
 10
1127.113412105334
 20
7.248075154822971
 30
0.0
  0
VERTEX
  5
88
  8
WARSTWA_1
 10
1126.965252537579
 20
7.389846315558487
 30
0.0
  0
VERTEX
  5
89
  8
WARSTWA_1
 10
1126.66078350137
 20
7.682204720635299
 30
0.0
  0
VERTEX
  5
8A
  8
WARSTWA_1
 10
1125.450484760982
 20
8.858017031905717
 30
0.0
  0
VERTEX
  5
8B
  8
WARSTWA_1
 10
1123.065930895754
 20
11.23987846831568
 30
0.0
  0
VERTEX
  5
8C
  8
WARSTWA_1
 10
1120.728762516298
 20
13.66127431755393
 30
0.0
  0
VERTEX
  5
8D
  8
WARSTWA_1
 10
1118.438172420661
 20
16.12126697281582
 30
0.0
  0
VERTEX
  5
8E
  8
WARSTWA_1
 10
1116.193353406893
 20
18.61891882730396
 30
0.0
  0
VERTEX
  5
8F
  8
WARSTWA_1
 10
1113.993498273042
 20
21.15329227421188
 30
0.0
  0
VERTEX
  5
90
  8
WARSTWA_1
 10
1111.837799817158
 20
23.72344970674038
 30
0.0
  0
VERTEX
  5
91
  8
WARSTWA_1
 10
1109.725450837289
 20
26.32845351809027
 30
0.0
  0
VERTEX
  5
92
  8
WARSTWA_1
 10
1107.655644131486
 20
28.96736610145325
 30
0.0
  0
VERTEX
  5
93
  8
WARSTWA_1
 10
1105.627572497796
 20
31.63924985003558
 30
0.0
  0
VERTEX
  5
94
  8
WARSTWA_1
 10
1103.640428734267
 20
34.34316715702897
 30
0.0
  0
VERTEX
  5
95
  8
WARSTWA_1
 10
1101.69340563895
 20
37.07818041563968
 30
0.0
  0
VERTEX
  5
96
  8
WARSTWA_1
 10
1099.785696009893
 20
39.84335201905759
 30
0.0
  0
VERTEX
  5
97
  8
WARSTWA_1
 10
1097.916492645146
 20
42.63774436048897
 30
0.0
  0
VERTEX
  5
98
  8
WARSTWA_1
 10
1096.084988342755
 20
45.46041983312551
 30
0.0
  0
VERTEX
  5
99
  8
WARSTWA_1
 10
1094.290375900772
 20
48.31044083017167
 30
0.0
  0
VERTEX
  5
9A
  8
WARSTWA_1
 10
1092.531848117245
 20
51.18686974482279
 30
0.0
  0
VERTEX
  5
9B
  8
WARSTWA_1
 10
1090.808597790223
 20
54.08876897027784
 30
0.0
  0
VERTEX
  5
9C
  8
WARSTWA_1
 10
1089.119817717755
 20
57.01520089973582
 30
0.0
  0
VERTEX
  5
9D
  8
WARSTWA_1
 10
1087.464700697888
 20
59.96522792639388
 30
0.0
  0
VERTEX
  5
9E
  8
WARSTWA_1
 10
1085.842439528674
 20
62.93791244345283
 30
0.0
  0
VERTEX
  5
9F
  8
WARSTWA_1
 10
1084.252227008159
 20
65.93231684410983
 30
0.0
  0
VERTEX
  5
A0
  8
WARSTWA_1
 10
1082.693255934394
 20
68.94750352156206
 30
0.0
  0
VERTEX
  5
A1
  8
WARSTWA_1
 10
1081.164719105427
 20
71.9825348690103
 30
0.0
  0
VERTEX
  5
A2
  8
WARSTWA_1
 10
1079.665809319307
 20
75.03647327965172
 30
0.0
  0
VERTEX
  5
A3
  8
WARSTWA_1
 10
1078.195719374085
 20
78.10838114668712
 30
0.0
  0
VERTEX
  5
A4
  8
WARSTWA_1
 10
1076.753642067805
 20
81.19732086331186
 30
0.0
  0
VERTEX
  5
A5
  8
WARSTWA_1
 10
1075.338770198521
 20
84.30235482272491
 30
0.0
  0
VERTEX
  5
A6
  8
WARSTWA_1
 10
1073.950296564279
 20
87.42254541812707
 30
0.0
  0
VERTEX
  5
A7
  8
WARSTWA_1
 10
1073.26570683469
 20
88.98803145219807
 30
0.0
  0
VERTEX
  5
A8
  8
WARSTWA_1
 10
1073.180577935565
 20
89.18396131317803
 30
0.0
  0
VERTEX
  5
A9
  8
WARSTWA_1
 10
1073.169943731294
 20
89.2084563110131
 30
0.0
  0
VERTEX
  5
AA
  8
WARSTWA_1
 10
1073.168424679008
 20
89.211955670142
 30
0.0
  0
VERTEX
  5
AB
  8
WARSTWA_1
 10
1073.168424623738
 20
89.211955726045
 30
0.0
  0
VERTEX
  5
AC
  8
WARSTWA_1
 10
1073.168424334875
 20
89.21195601822927
 30
0.0
  0
VERTEX
  5
AD
  8
WARSTWA_1
 10
1073.1684208111
 20
89.2119595825099
 30
0.0
  0
VERTEX
  5
AE
  8
WARSTWA_1
 10
1073.16840250144
 20
89.2119781026251
 30
0.0
  0
VERTEX
  5
AF
  8
WARSTWA_1
 10
1073.168183878043
 20
89.21219923893312
 30
0.0
  0
VERTEX
  5
B0
  8
WARSTWA_1
 10
1073.167102978016
 20
89.21329256309781
 30
0.0
  0
VERTEX
  5
B1
  8
WARSTWA_1
 10
1073.156642994755
 20
89.2238727760543
 30
0.0
  0
VERTEX
  5
B2
  8
WARSTWA_1
 10
1073.134015512916
 20
89.2467603438892
 30
0.0
  0
VERTEX
  5
B3
  8
WARSTWA_1
 10
1073.127930684677
 20
89.26103489901305
 30
0.0
  0
VERTEX
  5
B4
  8
WARSTWA_1
 10
1073.113618771863
 20
89.29592043325846
 30
0.0
  0
VERTEX
  5
B5
  8
WARSTWA_1
 10
1073.092041343276
 20
89.34851578746219
 30
0.0
  0
VERTEX
  5
B6
  8
WARSTWA_1
 10
1073.032648256863
 20
89.49328745961083
 30
0.0
  0
VERTEX
  5
B7
  8
WARSTWA_1
 10
1072.960868061594
 20
89.66825292317134
 30
0.0
  0
VERTEX
  5
B8
  8
WARSTWA_1
 10
1072.88781739362
 20
89.84631518585064
 30
0.0
  0
VERTEX
  5
B9
  8
WARSTWA_1
 10
1072.824612889098
 20
90.00037725535748
 30
0.0
  0
VERTEX
  5
BA
  8
WARSTWA_1
 10
1072.800176896929
 20
90.0599404075785
 30
0.0
  0
VERTEX
  5
BB
  8
WARSTWA_1
 10
1072.78237118418
 20
90.10334213939876
 30
0.0
  0
VERTEX
  5
BC
  8
WARSTWA_1
 10
1072.77258533037
 20
90.12719532677892
 30
0.0
  0
VERTEX
  5
BD
  8
WARSTWA_1
 10
1072.771134094169
 20
90.1307327400429
 30
0.0
  0
VERTEX
  5
BE
  8
WARSTWA_1
 10
1072.771125462614
 20
90.13075377960939
 30
0.0
  0
VERTEX
  5
BF
  8
WARSTWA_1
 10
1072.771124851477
 20
90.13075526926349
 30
0.0
  0
VERTEX
  5
C0
  8
WARSTWA_1
 10
1072.770859527544
 20
90.13137063222001
 30
0.0
  0
VERTEX
  5
C1
  8
WARSTWA_1
 10
1072.76157616284
 20
90.1529030297117
 30
0.0
  0
VERTEX
  5
C2
  8
WARSTWA_1
 10
1072.724450717984
 20
90.23905080350613
 30
0.0
  0
VERTEX
  5
C3
  8
WARSTWA_1
 10
1072.576077039049
 20
90.58393196180822
 30
0.0
  0
VERTEX
  5
C4
  8
WARSTWA_1
 10
1072.279943104051
 20
91.27507614514269
 30
0.0
  0
VERTEX
  5
C5
  8
WARSTWA_1
 10
1071.690116351384
 20
92.66280206635946
 30
0.0
  0
VERTEX
  5
C6
  8
WARSTWA_1
 10
1071.246650491803
 20
93.72276413832441
 30
0.0
 42
0.0048100522855924
  0
VERTEX
  5
C7
  8
WARSTWA_1
 10
1071.870984483797
 20
93.28859696610328
 30
0.0
 42
-0.018555044731014
  0
VERTEX
  5
C8
  8
WARSTWA_1
 10
1072.200624913059
 20
93.04565475913677
 30
0.0
 42
-0.0162842701619415
  0
VERTEX
  5
C9
  8
WARSTWA_1
 10
1072.479450113154
 20
92.808508735354
 30
0.0
 42
0.0068165625465292
  0
VERTEX
  5
CA
  8
WARSTWA_1
 10
1073.57655347297
 20
91.83901494937362
 30
0.0
 42
0.0261387124106791
  0
VERTEX
  5
CB
  8
WARSTWA_1
 10
1080.430543285807
 20
86.54339835663512
 30
0.0
 42
0.0556244118274806
  0
VERTEX
  5
CC
  8
WARSTWA_1
 10
1093.608747730096
 20
79.43914113758018
 30
0.0
 42
0.02518580051782
  0
VERTEX
  5
CD
  8
WARSTWA_1
 10
1101.231403408182
 20
76.80317539803076
 30
0.0
 42
0.0069636315175707
  0
VERTEX
  5
CE
  8
WARSTWA_1
 10
1106.905108708473
 20
75.24119690378592
 30
0.0
 42
0.0015242594529326
  0
VERTEX
  5
CF
  8
WARSTWA_1
 10
1111.962672079113
 20
73.94078420206364
 30
0.0
 42
-0.0074553665492757
  0
VERTEX
  5
D0
  8
WARSTWA_1
 10
1117.00445458401
 20
72.5804718790443
 30
0.0
 42
-0.0163515914865718
  0
VERTEX
  5
D1
  8
WARSTWA_1
 10
1123.914672987403
 20
70.35822359361913
 30
0.0
 42
-0.0383961723714355
  0
VERTEX
  5
D2
  8
WARSTWA_1
 10
1134.831513399905
 20
65.4752257144284
 30
0.0
 42
-0.0349786472770005
  0
VERTEX
  5
D3
  8
WARSTWA_1
 10
1144.707293744388
 20
59.18296896947362
 30
0.0
 42
-0.021472946607921
  0
VERTEX
  5
D4
  8
WARSTWA_1
 10
1152.399984985921
 20
52.96028003672853
 30
0.0
 42
-0.0026302160195377
  0
VERTEX
  5
D5
  8
WARSTWA_1
 10
1153.396426823953
 20
52.07150408104002
 30
0.0
 42
-0.0025924747311339
  0
VERTEX
  5
D6
  8
WARSTWA_1
 10
1154.397900969067
 20
51.15927915920491
 30
0.0
  0
VERTEX
  5
D7
  8
WARSTWA_1
 10
1154.6090267021
 20
50.96411931460642
 30
0.0
 42
-0.1609577925415134
  0
VERTEX
  5
D8
  8
WARSTWA_1
 10
1154.613688078912
 20
50.90362795025902
 30
0.0
 42
0.050218594445477
  0
VERTEX
  5
D9
  8
WARSTWA_1
 10
1154.605106654661
 20
50.84356720807062
 30
0.0
 42
-0.0216889375955202
  0
VERTEX
  5
DA
  8
WARSTWA_1
 10
1154.008853352925
 20
43.84048850735184
 30
0.0
 42
-0.0265593172342449
  0
VERTEX
  5
DB
  8
WARSTWA_1
 10
1152.973075154108
 20
38.19378833193349
 30
0.0
 42
-0.0354221923226702
  0
VERTEX
  5
DC
  8
WARSTWA_1
 10
1151.034609665801
 20
32.04366587715566
 30
0.0
 42
-0.0410366398467085
  0
VERTEX
  5
DD
  8
WARSTWA_1
 10
1148.571571252031
 20
27.04947069603094
 30
0.0
 42
-0.0569678380549008
  0
VERTEX
  5
DE
  8
WARSTWA_1
 10
1144.305475387906
 20
21.48423868649633
 30
0.0
 42
-0.0304310900548821
  0
VERTEX
  5
DF
  8
WARSTWA_1
 10
1141.507515593894
 20
18.91853512712458
 30
0.0
 42
-0.000000005388197
  0
VERTEX
  5
E0
  8
WARSTWA_1
 10
1134.31046384965
 20
13.08330514092967
 30
0.0
 42
-0.0000000076787929
  0
SEQEND
  5
5CB
  8
WARSTWA_1
  0
POLYLINE
  5
71
  8
WARSTWA_1
 66
     1
 10
0.0
 20
0.0
 30
0.0
 70
     1
  0
VERTEX
  5
E1
  8
WARSTWA_1
 10
1053.402427058227
 20
456.3643735654964
 30
0.0
 42
-0.0013309075436565
  0
VERTEX
  5
E2
  8
WARSTWA_1
 10
1053.738093626815
 20
455.649910370835
 30
0.0
 42
-0.0015765340421324
  0
VERTEX
  5
E3
  8
WARSTWA_1
 10
1054.017951005072
 20
455.04512368932
 30
0.0
 42
-0.0307866418523223
  0
VERTEX
  5
E4
  8
WARSTWA_1
 10
1058.716391523976
 20
442.8841956889107
 30
0.0
 42
-0.0351052830187226
  0
VERTEX
  5
E5
  8
WARSTWA_1
 10
1061.401006401842
 20
431.7673087965882
 30
0.0
 42
-0.0353144496376109
  0
VERTEX
  5
E6
  8
WARSTWA_1
 10
1062.403939576908
 20
421.3709293426837
 30
0.0
 42
-0.0722747891654897
  0
VERTEX
  5
E7
  8
WARSTWA_1
 10
1060.224085076196
 20
403.0969557435014
 30
0.0
 42
-0.0352403692096421
  0
VERTEX
  5
E8
  8
WARSTWA_1
 10
1057.233808936343
 20
394.4648683739001
 30
0.0
 42
-0.0142443106339269
  0
VERTEX
  5
E9
  8
WARSTWA_1
 10
1054.852217766969
 20
389.3048508113093
 30
0.0
 42
0.0002013041818316
  0
VERTEX
  5
EA
  8
WARSTWA_1
 10
1053.342635646598
 20
386.2617703737255
 30
0.0
 42
0.0227278469236742
  0
VERTEX
  5
EB
  8
WARSTWA_1
 10
1052.843145864169
 20
385.1270023482352
 30
0.0
 42
-0.0085153476595966
  0
VERTEX
  5
EC
  8
WARSTWA_1
 10
1052.71839382173
 20
384.8202268241043
 30
0.0
 42
-0.0038255934146922
  0
VERTEX
  5
ED
  8
WARSTWA_1
 10
1052.423939077028
 20
384.1442341264315
 30
0.0
 42
0.0133748969178637
  0
VERTEX
  5
EE
  8
WARSTWA_1
 10
1052.189111471743
 20
384.1402947909157
 30
0.0
 42
-0.0063361558464714
  0
VERTEX
  5
EF
  8
WARSTWA_1
 10
1051.954379287871
 20
384.1332951257314
 30
0.0
 42
-0.0182054510676806
  0
VERTEX
  5
F0
  8
WARSTWA_1
 10
1045.470935028477
 20
384.2582340016802
 30
0.0
 42
-0.0415099659916854
  0
VERTEX
  5
F1
  8
WARSTWA_1
 10
1034.738891934044
 20
385.7558104921586
 30
0.0
 42
-0.0378223770998043
  0
VERTEX
  5
F2
  8
WARSTWA_1
 10
1025.430380920205
 20
388.6070248409271
 30
0.0
 42
-0.0149527333156147
  0
VERTEX
  5
F3
  8
WARSTWA_1
 10
1019.800813053912
 20
391.005372765941
 30
0.0
 42
-0.0069973052191864
  0
VERTEX
  5
F4
  8
WARSTWA_1
 10
1014.664630660001
 20
393.4651678829005
 30
0.0
 42
0.0121548670553638
  0
VERTEX
  5
F5
  8
WARSTWA_1
 10
1009.503351203552
 20
395.8718577202849
 30
0.0
 42
0.0231964662941806
  0
VERTEX
  5
F6
  8
WARSTWA_1
 10
1004.939279088048
 20
397.6191890865409
 30
0.0
 42
0.0296223899082348
  0
VERTEX
  5
F7
  8
WARSTWA_1
 10
1001.239701525758
 20
398.6034294846172
 30
0.0
 42
0.0767364109089806
  0
VERTEX
  5
F8
  8
WARSTWA_1
 10
992.3687053013915
 20
399.0261712093177
 30
0.0
 42
0.0356614498090276
  0
VERTEX
  5
F9
  8
WARSTWA_1
 10
987.2790218571066
 20
398.1165736977832
 30
0.0
 42
0.0074077743052398
  0
VERTEX
  5
FA
  8
WARSTWA_1
 10
985.9157036977114
 20
397.7495846660597
 30
0.0
 42
0.0290268010087765
  0
VERTEX
  5
FB
  8
WARSTWA_1
 10
985.5752506754492
 20
397.6307574483176
 30
0.0
 42
0.0030380461712689
  0
VERTEX
  5
FC
  8
WARSTWA_1
 10
979.4798340640677
 20
395.0542248581821
 30
0.0
 42
-0.0063368890932481
  0
VERTEX
  5
FD
  8
WARSTWA_1
 10
973.367551470866
 20
392.5179627748835
 30
0.0
 42
-0.0110040028945672
  0
VERTEX
  5
FE
  8
WARSTWA_1
 10
966.9972129372517
 20
390.1300159799141
 30
0.0
 42
-0.016025065991905
  0
VERTEX
  5
FF
  8
WARSTWA_1
 10
958.677382618985
 20
387.5145058418416
 30
0.0
 42
0.039609581201328
  0
VERTEX
  5
100
  8
WARSTWA_1
 10
958.6063667124987
 20
387.4884446208482
 30
0.0
 42
-0.150460675092506
  0
VERTEX
  5
101
  8
WARSTWA_1
 10
958.5313800857906
 20
387.4784720570528
 30
0.0
 42
0.0061791848410273
  0
VERTEX
  5
102
  8
WARSTWA_1
 10
958.8171995617703
 20
388.7387367590898
 30
0.0
 42
0.0044193777965268
  0
VERTEX
  5
103
  8
WARSTWA_1
 10
959.1793881317557
 20
390.5088834427856
 30
0.0
 42
0.000866313902601
  0
VERTEX
  5
104
  8
WARSTWA_1
 10
959.7533861800509
 20
393.4734611523684
 30
0.0
 42
-0.0173888240141589
  0
VERTEX
  5
105
  8
WARSTWA_1
 10
960.2669271053559
 20
395.7245267501071
 30
0.0
 42
-0.029722045766908
  0
VERTEX
  5
106
  8
WARSTWA_1
 10
961.0774538327472
 20
398.1827576646124
 30
0.0
 42
-0.0728183314560386
  0
VERTEX
  5
107
  8
WARSTWA_1
 10
963.16473117974
 20
401.8005132686699
 30
0.0
 42
-0.0479815731973388
  0
VERTEX
  5
108
  8
WARSTWA_1
 10
965.2960479232628
 20
404.0225105677973
 30
0.0
 42
-0.036642041990561
  0
VERTEX
  5
109
  8
WARSTWA_1
 10
968.5338039630682
 20
406.4185208911872
 30
0.0
 42
-0.0242697291838788
  0
VERTEX
  5
10A
  8
WARSTWA_1
 10
971.7087924447178
 20
408.2166502394887
 30
0.0
 42
-0.0170777646803337
  0
VERTEX
  5
10B
  8
WARSTWA_1
 10
976.4150948170849
 20
410.3900076611076
 30
0.0
 42
-0.0139303708580885
  0
VERTEX
  5
10C
  8
WARSTWA_1
 10
976.592483373999
 20
410.4589346493888
 30
0.0
 42
0.1841290260741532
  0
VERTEX
  5
10D
  8
WARSTWA_1
 10
976.6962824537108
 20
410.5476002956143
 30
0.0
 42
0.0074436969976602
  0
VERTEX
  5
10E
  8
WARSTWA_1
 10
977.0396444981535
 20
411.199478249074
 30
0.0
 42
-0.0040504822689769
  0
VERTEX
  5
10F
  8
WARSTWA_1
 10
977.3785748968525
 20
411.8536712974997
 30
0.0
 42
-0.0173429498488956
  0
VERTEX
  5
110
  8
WARSTWA_1
 10
982.0620123916844
 20
420.0183588951506
 30
0.0
 42
-0.0216901319139329
  0
VERTEX
  5
111
  8
WARSTWA_1
 10
986.3051581991252
 20
426.2358347428449
 30
0.0
 42
-0.0306093856429482
  0
VERTEX
  5
112
  8
WARSTWA_1
 10
991.9238517079449
 20
432.8603817913011
 30
0.0
 42
-0.0697304967413404
  0
VERTEX
  5
113
  8
WARSTWA_1
 10
1003.325977145042
 20
441.8370109150997
 30
0.0
 42
-0.0351141988800462
  0
VERTEX
  5
114
  8
WARSTWA_1
 10
1010.467864616312
 20
445.3532353258893
 30
0.0
 42
-0.0201071810998193
  0
VERTEX
  5
115
  8
WARSTWA_1
 10
1017.105761481715
 20
447.7543970200836
 30
0.0
 42
-0.0162018202502719
  0
VERTEX
  5
116
  8
WARSTWA_1
 10
1024.676152932026
 20
449.8861329163612
 30
0.0
 42
-0.006013547156938
  0
VERTEX
  5
117
  8
WARSTWA_1
 10
1033.630677049167
 20
451.9832801085263
 30
0.0
 42
-0.0015044225940957
  0
VERTEX
  5
118
  8
WARSTWA_1
 10
1043.523345914093
 20
454.143776729813
 30
0.0
 42
0.0044889413030236
  0
VERTEX
  5
119
  8
WARSTWA_1
 10
1053.402942664787
 20
456.3632836492357
 30
0.0
  0
SEQEND
  5
5CC
  8
WARSTWA_1
  0
POLYLINE
  5
72
  8
WARSTWA_1
 66
     1
 10
0.0
 20
0.0
 30
0.0
 70
     1
  0
VERTEX
  5
11A
  8
WARSTWA_1
 10
1068.845385304861
 20
373.1963455156837
 30
0.0
  0
VERTEX
  5
11B
  8
WARSTWA_1
 10
1067.354957492559
 20
355.1228620464425
 30
0.0
 42
0.0051697454733227
  0
VERTEX
  5
11C
  8
WARSTWA_1
 10
1067.300559665889
 20
354.3680042593463
 30
0.0
 42
-0.041301108265527
  0
VERTEX
  5
11D
  8
WARSTWA_1
 10
1067.273365134056
 20
354.1806652421636
 30
0.0
  0
VERTEX
  5
11E
  8
WARSTWA_1
 10
1056.625842384514
 20
308.0227907795869
 30
0.0
 42
0.0004973609866196
  0
VERTEX
  5
11F
  8
WARSTWA_1
 10
1054.507983650584
 20
298.7998234692224
 30
0.0
 42
-0.0039415340625693
  0
VERTEX
  5
120
  8
WARSTWA_1
 10
1053.962646412411
 20
296.4977725063726
 30
0.0
 42
-0.0243841019027877
  0
VERTEX
  5
121
  8
WARSTWA_1
 10
1051.84944052528
 20
289.3967425607838
 30
0.0
 42
-0.0134791160606967
  0
VERTEX
  5
122
  8
WARSTWA_1
 10
1049.44745108748
 20
283.1100816454453
 30
0.0
 42
-0.0116347207704149
  0
VERTEX
  5
123
  8
WARSTWA_1
 10
1046.162515439349
 20
275.6580475677714
 30
0.0
 42
0.0000609879661729
  0
VERTEX
  5
124
  8
WARSTWA_1
 10
1042.083600845807
 20
266.9562646828871
 30
0.0
 42
0.0059166354629623
  0
VERTEX
  5
125
  8
WARSTWA_1
 10
1038.732971199423
 20
259.5799772362342
 30
0.0
 42
0.0155773570863055
  0
VERTEX
  5
126
  8
WARSTWA_1
 10
1036.105858382866
 20
253.0667587179486
 30
0.0
 42
0.0219533428936427
  0
VERTEX
  5
127
  8
WARSTWA_1
 10
1033.905116240143
 20
246.1570087613369
 30
0.0
 42
0.0403201264365602
  0
VERTEX
  5
128
  8
WARSTWA_1
 10
1032.460450499097
 20
238.3876211797068
 30
0.0
 42
0.0249963967529882
  0
VERTEX
  5
129
  8
WARSTWA_1
 10
1032.096269702392
 20
231.5569045310036
 30
0.0
 42
0.0257799966802891
  0
VERTEX
  5
12A
  8
WARSTWA_1
 10
1032.416283827585
 20
224.93186629127
 30
0.0
 42
0.0288829563678945
  0
VERTEX
  5
12B
  8
WARSTWA_1
 10
1033.650546952913
 20
217.1634237625982
 30
0.0
 42
0.0160216831204982
  0
VERTEX
  5
12C
  8
WARSTWA_1
 10
1035.395794110923
 20
210.2522794924679
 30
0.0
 42
0.0102821074343586
  0
VERTEX
  5
12D
  8
WARSTWA_1
 10
1037.451606015345
 20
203.6054392180494
 30
0.0
 42
-0.0006194181483418
  0
VERTEX
  5
12E
  8
WARSTWA_1
 10
1040.381921881372
 20
194.7416721092667
 30
0.0
 42
-0.0042538553030784
  0
VERTEX
  5
12F
  8
WARSTWA_1
 10
1042.48834177528
 20
188.1553542629086
 30
0.0
 42
-0.0000691269881978
  0
VERTEX
  5
130
  8
WARSTWA_1
 10
1044.797982089008
 20
180.7124244293735
 30
0.0
 42
0.0023152384995018
  0
VERTEX
  5
131
  8
WARSTWA_1
 10
1051.799759145818
 20
158.5018373420479
 30
0.0
 42
0.005702767780012
  0
VERTEX
  5
132
  8
WARSTWA_1
 10
1058.437431829604
 20
138.566829497773
 30
0.0
 42
0.0066414034052178
  0
VERTEX
  5
133
  8
WARSTWA_1
 10
1064.916843042171
 20
120.5995935892987
 30
0.0
 42
0.0083134757133963
  0
VERTEX
  5
134
  8
WARSTWA_1
 10
1070.520126722079
 20
106.406929080449
 30
0.0
  0
VERTEX
  5
135
  8
WARSTWA_1
 10
1071.246650491803
 20
104.6704083908615
 30
0.0
  0
VERTEX
  5
136
  8
WARSTWA_1
 10
1072.200624913059
 20
103.9932990116739
 30
0.0
 42
-0.0209204415100471
  0
VERTEX
  5
137
  8
WARSTWA_1
 10
1072.375376763177
 20
103.8418555199222
 30
0.0
 42
0.0077807256232715
  0
VERTEX
  5
138
  8
WARSTWA_1
 10
1072.54608978627
 20
103.6858734566593
 30
0.0
 42
0.0030430511299714
  0
VERTEX
  5
139
  8
WARSTWA_1
 10
1073.407296739368
 20
102.9325292942438
 30
0.0
 42
0.0031110604528816
  0
VERTEX
  5
13A
  8
WARSTWA_1
 10
1074.25868320497
 20
102.2060770320785
 30
0.0
 42
0.0267804276153406
  0
VERTEX
  5
13B
  8
WARSTWA_1
 10
1081.157224878595
 20
96.99855710397273
 30
0.0
 42
0.056094979217272
  0
VERTEX
  5
13C
  8
WARSTWA_1
 10
1094.508058927687
 20
90.03113072857727
 30
0.0
 42
0.0235496519369759
  0
VERTEX
  5
13D
  8
WARSTWA_1
 10
1102.139842286567
 20
87.48654109174126
 30
0.0
 42
0.0057086533757036
  0
VERTEX
  5
13E
  8
WARSTWA_1
 10
1108.081444261325
 20
85.8848009105985
 30
0.0
 42
-0.0008147076731787
  0
VERTEX
  5
13F
  8
WARSTWA_1
 10
1114.147646952878
 20
84.31299476878789
 30
0.0
 42
-0.0123723666538901
  0
VERTEX
  5
140
  8
WARSTWA_1
 10
1120.04647357034
 20
82.61736237415957
 30
0.0
 42
-0.0189736853342005
  0
VERTEX
  5
141
  8
WARSTWA_1
 10
1126.602174538288
 20
80.27923128354414
 30
0.0
 42
-0.039040972706375
  0
VERTEX
  5
142
  8
WARSTWA_1
 10
1137.580017241403
 20
74.85971013757066
 30
0.0
 42
-0.028375196682305
  0
VERTEX
  5
143
  8
WARSTWA_1
 10
1145.721507958484
 20
69.3688817700316
 30
0.0
 42
-0.0240124034584408
  0
VERTEX
  5
144
  8
WARSTWA_1
 10
1154.6090267021
 20
61.91176356714354
 30
0.0
 42
0.0042183365451068
  0
VERTEX
  5
145
  8
WARSTWA_1
 10
1154.676149962749
 20
64.699966201916
 30
0.0
 42
0.0056774850885424
  0
VERTEX
  5
146
  8
WARSTWA_1
 10
1154.685014813728
 20
66.77219481685628
 30
0.0
 42
0.0156185806730907
  0
VERTEX
  5
147
  8
WARSTWA_1
 10
1154.36535463254
 20
75.11181156811298
 30
0.0
 42
0.0071644827860494
  0
VERTEX
  5
148
  8
WARSTWA_1
 10
1153.647218356186
 20
83.65371618307276
 30
0.0
 42
0.0038888071298915
  0
VERTEX
  5
149
  8
WARSTWA_1
 10
1152.785451584568
 20
91.75456683116417
 30
0.0
 42
-0.0047443499793942
  0
VERTEX
  5
14A
  8
WARSTWA_1
 10
1151.937547058264
 20
99.8568801493237
 30
0.0
 42
-0.0088978051757507
  0
VERTEX
  5
14B
  8
WARSTWA_1
 10
1151.397415113408
 20
106.8589553748271
 30
0.0
 42
-0.0138740859936623
  0
VERTEX
  5
14C
  8
WARSTWA_1
 10
1151.255796386691
 20
111.3611890062419
 30
0.0
 42
-0.0317111556781851
  0
VERTEX
  5
14D
  8
WARSTWA_1
 10
1151.693706085429
 20
118.6873223178771
 30
0.0
 42
-0.0068969192747351
  0
VERTEX
  5
14E
  8
WARSTWA_1
 10
1152.487956967029
 20
124.4528344959179
 30
0.0
 42
-0.0057284471407351
  0
VERTEX
  5
14F
  8
WARSTWA_1
 10
1153.545038830103
 20
130.9148531944801
 30
0.0
 42
0.0017790423834977
  0
VERTEX
  5
150
  8
WARSTWA_1
 10
1154.65312865656
 20
137.3683208408164
 30
0.0
 42
0.0064204999691716
  0
VERTEX
  5
151
  8
WARSTWA_1
 10
1155.995245806116
 20
146.0345172433673
 30
0.0
 42
0.0153677129490979
  0
VERTEX
  5
152
  8
WARSTWA_1
 10
1156.879823908546
 20
154.0382741918
 30
0.0
 42
0.0236807178865817
  0
VERTEX
  5
153
  8
WARSTWA_1
 10
1157.200747815455
 20
164.0674723937262
 30
0.0
 42
0.0590451442516587
  0
VERTEX
  5
154
  8
WARSTWA_1
 10
1156.005258371752
 20
172.9814926163052
 30
0.0
 42
0.0271838753438013
  0
VERTEX
  5
155
  8
WARSTWA_1
 10
1154.157295028406
 20
178.8385423292779
 30
0.0
 42
0.0127233451103895
  0
VERTEX
  5
156
  8
WARSTWA_1
 10
1151.816271190241
 20
184.6086299120287
 30
0.0
 42
0.0038697281595306
  0
VERTEX
  5
157
  8
WARSTWA_1
 10
1149.588708993882
 20
189.6154409838695
 30
0.0
 42
-0.0070873319804185
  0
VERTEX
  5
158
  8
WARSTWA_1
 10
1147.393411569996
 20
194.6364826754342
 30
0.0
 42
-0.0116412084671458
  0
VERTEX
  5
159
  8
WARSTWA_1
 10
1145.449737625253
 20
199.5784164074784
 30
0.0
 42
-0.015569672570494
  0
VERTEX
  5
15A
  8
WARSTWA_1
 10
1144.199476179811
 20
203.3474030169745
 30
0.0
 42
-0.0261991336597863
  0
VERTEX
  5
15B
  8
WARSTWA_1
 10
1142.839884524702
 20
208.9817475081924
 30
0.0
 42
-0.0415491217553301
  0
VERTEX
  5
15C
  8
WARSTWA_1
 10
1142.132717006562
 20
215.9359321267819
 30
0.0
 42
-0.0115841790573362
  0
VERTEX
  5
15D
  8
WARSTWA_1
 10
1142.159540527028
 20
221.4362777867958
 30
0.0
 42
-0.0108484607261577
  0
VERTEX
  5
15E
  8
WARSTWA_1
 10
1142.451560294754
 20
227.3023534622606
 30
0.0
 42
-0.020204818179069
  0
VERTEX
  5
15F
  8
WARSTWA_1
 10
1143.718903187706
 20
238.5867907832154
 30
0.0
 42
-0.0177002172786745
  0
VERTEX
  5
160
  8
WARSTWA_1
 10
1146.136664286095
 20
251.3202377075685
 30
0.0
 42
-0.0141771739167133
  0
VERTEX
  5
161
  8
WARSTWA_1
 10
1149.257946561387
 20
263.4736553032361
 30
0.0
 42
-0.0075942266537832
  0
VERTEX
  5
162
  8
WARSTWA_1
 10
1152.642345769968
 20
274.6142147181107
 30
0.0
 42
-0.0049494358976173
  0
VERTEX
  5
163
  8
WARSTWA_1
 10
1155.68277116418
 20
283.7884467143691
 30
0.0
 42
-0.0003731110521614
  0
VERTEX
  5
164
  8
WARSTWA_1
 10
1158.82967006581
 20
292.9559773672698
 30
0.0
 42
0.0001034581090973
  0
VERTEX
  5
165
  8
WARSTWA_1
 10
1162.154977232361
 20
302.6262597434389
 30
0.0
 42
0.002221380087479
  0
VERTEX
  5
166
  8
WARSTWA_1
 10
1163.519432758188
 20
306.6550354194404
 30
0.0
 42
0.0058090373800183
  0
VERTEX
  5
167
  8
WARSTWA_1
 10
1167.156641542505
 20
317.9904982418092
 30
0.0
 42
0.011910476847322
  0
VERTEX
  5
168
  8
WARSTWA_1
 10
1170.431420345592
 20
329.5946715829249
 30
0.0
 42
0.0158548139032787
  0
VERTEX
  5
169
  8
WARSTWA_1
 10
1173.209841585411
 20
342.0470855126149
 30
0.0
 42
0.0185751023631943
  0
VERTEX
  5
16A
  8
WARSTWA_1
 10
1174.844657833478
 20
352.8148486445533
 30
0.0
 42
-0.0152218289322642
  0
VERTEX
  5
16B
  8
WARSTWA_1
 10
1175.936869178391
 20
360.3487562294671
 30
0.0
 42
-0.0333944840386345
  0
VERTEX
  5
16C
  8
WARSTWA_1
 10
1179.033719994275
 20
372.9394927036409
 30
0.0
 42
-0.0234922012874887
  0
VERTEX
  5
16D
  8
WARSTWA_1
 10
1182.540360600331
 20
382.4013364832839
 30
0.0
 42
-0.0120147998783192
  0
VERTEX
  5
16E
  8
WARSTWA_1
 10
1186.530050842983
 20
391.1951808762689
 30
0.0
 42
0.0008437200757185
  0
VERTEX
  5
16F
  8
WARSTWA_1
 10
1185.242674932885
 20
390.5991708926266
 30
0.0
 42
-0.0025311650320529
  0
VERTEX
  5
170
  8
WARSTWA_1
 10
1183.953294896206
 20
390.0075090335248
 30
0.0
 42
-0.0650557372007708
  0
VERTEX
  5
171
  8
WARSTWA_1
 10
1131.796811901444
 20
374.1465191089725
 30
0.0
 42
-0.0650558844858892
  0
VERTEX
  5
172
  8
WARSTWA_1
 10
1077.316154624457
 20
372.2192517747566
 30
0.0
 42
-0.0058286033707112
  0
VERTEX
  5
173
  8
WARSTWA_1
 10
1073.160262101615
 20
372.6623804324664
 30
0.0
 42
-0.0026207622723017
  0
SEQEND
  5
5CD
  8
WARSTWA_1
  0
POLYLINE
  5
73
  8
WARSTWA_1
 66
     1
 10
0.0
 20
0.0
 30
0.0
 70
     1
  0
VERTEX
  5
174
  8
WARSTWA_1
 10
1089.271988985294
 20
773.2799292485395
 30
0.0
 42
-0.0045162423042258
  0
VERTEX
  5
175
  8
WARSTWA_1
 10
1096.238645456564
 20
788.1979538025134
 30
0.0
 42
-0.0061593664534088
  0
VERTEX
  5
176
  8
WARSTWA_1
 10
1105.245653440043
 20
806.457775919087
 30
0.0
 42
-0.0067844681519628
  0
VERTEX
  5
177
  8
WARSTWA_1
 10
1114.787899691792
 20
824.6031039192878
 30
0.0
 42
-0.0087798346367294
  0
VERTEX
  5
178
  8
WARSTWA_1
 10
1117.886609816307
 20
830.0750544836828
 30
0.0
 42
-0.0053944722705396
  0
VERTEX
  5
179
  8
WARSTWA_1
 10
1120.728335883828
 20
834.7771752015908
 30
0.0
 42
0.0018555086914592
  0
VERTEX
  5
17A
  8
WARSTWA_1
 10
1123.603271290614
 20
839.4590650652481
 30
0.0
 42
0.0040871047022295
  0
VERTEX
  5
17B
  8
WARSTWA_1
 10
1126.050667210827
 20
843.5530308772124
 30
0.0
 42
0.0055083531352466
  0
VERTEX
  5
17C
  8
WARSTWA_1
 10
1127.807991811876
 20
846.6250135619175
 30
0.0
 42
0.0174138588590299
  0
VERTEX
  5
17D
  8
WARSTWA_1
 10
1131.063497645133
 20
852.9744764636066
 30
0.0
 42
0.0312153501786411
  0
VERTEX
  5
17E
  8
WARSTWA_1
 10
1133.969981603414
 20
860.3251406823965
 30
0.0
 42
0.008570404511666
  0
VERTEX
  5
17F
  8
WARSTWA_1
 10
1134.196702895879
 20
861.0659667632785
 30
0.0
 42
-0.0322337491022872
  0
VERTEX
  5
180
  8
WARSTWA_1
 10
1134.262092333724
 20
861.2483266535583
 30
0.0
 42
-0.0086882096022507
  0
VERTEX
  5
181
  8
WARSTWA_1
 10
1135.964735564066
 20
861.0586349056298
 30
0.0
 42
-0.0116883504391676
  0
VERTEX
  5
182
  8
WARSTWA_1
 10
1137.22362968922
 20
860.866176651647
 30
0.0
 42
-0.0321700612560175
  0
VERTEX
  5
183
  8
WARSTWA_1
 10
1139.736116345503
 20
860.2529325803343
 30
0.0
 42
-0.0436251824445908
  0
VERTEX
  5
184
  8
WARSTWA_1
 10
1141.500921868927
 20
859.5256208642386
 30
0.0
 42
-0.1008742902707787
  0
VERTEX
  5
185
  8
WARSTWA_1
 10
1144.631152637138
 20
856.9985959803114
 30
0.0
 42
-0.038248835428534
  0
VERTEX
  5
186
  8
WARSTWA_1
 10
1146.118115657778
 20
854.8895154103302
 30
0.0
 42
-0.0294826355835535
  0
VERTEX
  5
187
  8
WARSTWA_1
 10
1147.419886258042
 20
852.3809971379703
 30
0.0
 42
-0.0177768213400062
  0
VERTEX
  5
188
  8
WARSTWA_1
 10
1149.175693044753
 20
848.0378997172629
 30
0.0
 42
-0.0117292054629798
  0
VERTEX
  5
189
  8
WARSTWA_1
 10
1151.162145623724
 20
842.145958407544
 30
0.0
 42
-0.006694427634235
  0
VERTEX
  5
18A
  8
WARSTWA_1
 10
1152.084450339428
 20
839.0363519568182
 30
0.0
 42
-0.0183115383851387
  0
VERTEX
  5
18B
  8
WARSTWA_1
 10
1154.301398752547
 20
829.9109589145653
 30
0.0
 42
-0.014364884347557
  0
VERTEX
  5
18C
  8
WARSTWA_1
 10
1156.361533640068
 20
818.1202331939749
 30
0.0
 42
-0.0061951879200645
  0
VERTEX
  5
18D
  8
WARSTWA_1
 10
1157.21638227085
 20
811.6749067098799
 30
0.0
  0
VERTEX
  5
18E
  8
WARSTWA_1
 10
1157.110407964364
 20
811.5642912321637
 30
0.0
  0
VERTEX
  5
18F
  8
WARSTWA_1
 10
1156.960880052034
 20
811.4077228287115
 30
0.0
  0
VERTEX
  5
190
  8
WARSTWA_1
 10
1156.812590046678
 20
811.2525562181709
 30
0.0
  0
VERTEX
  5
191
  8
WARSTWA_1
 10
1156.665489387558
 20
811.0987773018842
 30
0.0
  0
VERTEX
  5
192
  8
WARSTWA_1
 10
1156.519529513935
 20
810.9463719812047
 30
0.0
  0
VERTEX
  5
193
  8
WARSTWA_1
 10
1156.374661865068
 20
810.7953261574785
 30
0.0
  0
VERTEX
  5
194
  8
WARSTWA_1
 10
1156.230837880219
 20
810.6456257320497
 30
0.0
  0
VERTEX
  5
195
  8
WARSTWA_1
 10
1156.088008998649
 20
810.4972566062679
 30
0.0
  0
VERTEX
  5
196
  8
WARSTWA_1
 10
1155.94612665962
 20
810.3502046814792
 30
0.0
  0
VERTEX
  5
197
  8
WARSTWA_1
 10
1155.805142302391
 20
810.2044558590333
 30
0.0
  0
VERTEX
  5
198
  8
WARSTWA_1
 10
1155.665007366225
 20
810.0599960402706
 30
0.0
  0
VERTEX
  5
199
  8
WARSTWA_1
 10
1155.525673290382
 20
809.9168111265444
 30
0.0
  0
VERTEX
  5
19A
  8
WARSTWA_1
 10
1155.387091514123
 20
809.7748870192008
 30
0.0
  0
VERTEX
  5
19B
  8
WARSTWA_1
 10
1155.24921347671
 20
809.6342096195858
 30
0.0
  0
VERTEX
  5
19C
  8
WARSTWA_1
 10
1154.975374375461
 20
809.3565385489328
 30
0.0
  0
VERTEX
  5
19D
  8
WARSTWA_1
 10
1154.703767500725
 20
809.0836851253607
 30
0.0
  0
VERTEX
  5
19E
  8
WARSTWA_1
 10
1154.434004366588
 20
808.8155365596485
 30
0.0
  0
VERTEX
  5
19F
  8
WARSTWA_1
 10
1154.165696487139
 20
808.5519800625752
 30
0.0
  0
VERTEX
  5
1A0
  8
WARSTWA_1
 10
1153.898455376467
 20
808.2929028449107
 30
0.0
  0
VERTEX
  5
1A1
  8
WARSTWA_1
 10
1153.631892548658
 20
808.038192117443
 30
0.0
  0
VERTEX
  5
1A2
  8
WARSTWA_1
 10
1153.3656195178
 20
807.7877350909403
 30
0.0
  0
VERTEX
  5
1A3
  8
WARSTWA_1
 10
1153.099247797982
 20
807.5414189761832
 30
0.0
  0
VERTEX
  5
1A4
  8
WARSTWA_1
 10
1152.83238890329
 20
807.2991309839508
 30
0.0
  0
VERTEX
  5
1A5
  8
WARSTWA_1
 10
1152.564654347814
 20
807.0607583250148
 30
0.0
  0
VERTEX
  5
1A6
  8
WARSTWA_1
 10
1152.295655645641
 20
806.8261882101597
 30
0.0
  0
VERTEX
  5
1A7
  8
WARSTWA_1
 10
1152.02500431086
 20
806.5953078501552
 30
0.0
  0
VERTEX
  5
1A8
  8
WARSTWA_1
 10
1151.752311857557
 20
806.3680044557841
 30
0.0
  0
VERTEX
  5
1A9
  8
WARSTWA_1
 10
1151.47718979982
 20
806.1441652378217
 30
0.0
  0
VERTEX
  5
1AA
  8
WARSTWA_1
 10
1151.199249651739
 20
805.9236774070469
 30
0.0
  0
VERTEX
  5
1AB
  8
WARSTWA_1
 10
1150.9181029274
 20
805.706428174235
 30
0.0
  0
VERTEX
  5
1AC
  8
WARSTWA_1
 10
1150.633361140891
 20
805.4923047501616
 30
0.0
  0
VERTEX
  5
1AD
  8
WARSTWA_1
 10
1150.344635806299
 20
805.281194345609
 30
0.0
  0
VERTEX
  5
1AE
  8
WARSTWA_1
 10
1150.051538437715
 20
805.0729841713473
 30
0.0
  0
VERTEX
  5
1AF
  8
WARSTWA_1
 10
1149.903228838827
 20
804.969931423946
 30
0.0
  0
VERTEX
  5
1B0
  8
WARSTWA_1
 10
1149.753680549223
 20
804.8675614381591
 30
0.0
  0
VERTEX
  5
1B1
  8
WARSTWA_1
 10
1149.602845008166
 20
804.7658601153362
 30
0.0
  0
VERTEX
  5
1B2
  8
WARSTWA_1
 10
1149.450673654914
 20
804.6648133568215
 30
0.0
  0
VERTEX
  5
1B3
  8
WARSTWA_1
 10
1149.297117928731
 20
804.5644070639646
 30
0.0
  0
VERTEX
  5
1B4
  8
WARSTWA_1
 10
1149.142129268875
 20
804.4646271381098
 30
0.0
  0
VERTEX
  5
1B5
  8
WARSTWA_1
 10
1148.985659114609
 20
804.3654594806067
 30
0.0
  0
VERTEX
  5
1B6
  8
WARSTWA_1
 10
1148.827658905194
 20
804.266889992803
 30
0.0
  0
VERTEX
  5
1B7
  8
WARSTWA_1
 10
1148.668080079889
 20
804.1689045760431
 30
0.0
  0
VERTEX
  5
1B8
  8
WARSTWA_1
 10
1148.506874077956
 20
804.0714891316748
 30
0.0
  0
VERTEX
  5
1B9
  8
WARSTWA_1
 10
1148.343992338658
 20
803.9746295610475
 30
0.0
  0
VERTEX
  5
1BA
  8
WARSTWA_1
 10
1148.179386301254
 20
803.8783117655057
 30
0.0
  0
VERTEX
  5
1BB
  8
WARSTWA_1
 10
1148.013007405005
 20
803.7825216463989
 30
0.0
  0
VERTEX
  5
1BC
  8
WARSTWA_1
 10
1147.844807089173
 20
803.6872451050731
 30
0.0
  0
VERTEX
  5
1BD
  8
WARSTWA_1
 10
1147.674736793017
 20
803.5924680428761
 30
0.0
  0
VERTEX
  5
1BE
  8
WARSTWA_1
 10
1147.5027479558
 20
803.498176361154
 30
0.0
  0
VERTEX
  5
1BF
  8
WARSTWA_1
 10
1147.328792016781
 20
803.4043559612546
 30
0.0
  0
VERTEX
  5
1C0
  8
WARSTWA_1
 10
1147.152820415223
 20
803.3109927445239
 30
0.0
  0
VERTEX
  5
1C1
  8
WARSTWA_1
 10
1146.974784590387
 20
803.2180726123079
 30
0.0
  0
VERTEX
  5
1C2
  8
WARSTWA_1
 10
1146.794635981533
 20
803.1255814659598
 30
0.0
  0
VERTEX
  5
1C3
  8
WARSTWA_1
 10
1146.612326027922
 20
803.0335052068203
 30
0.0
  0
VERTEX
  5
1C4
  8
WARSTWA_1
 10
1146.427806168815
 20
802.9418297362408
 30
0.0
  0
VERTEX
  5
1C5
  8
WARSTWA_1
 10
1146.241027843473
 20
802.8505409555655
 30
0.0
  0
VERTEX
  5
1C6
  8
WARSTWA_1
 10
1146.051942491158
 20
802.759624766144
 30
0.0
  0
VERTEX
  5
1C7
  8
WARSTWA_1
 10
1145.860501551128
 20
802.6690670693206
 30
0.0
  0
VERTEX
  5
1C8
  8
WARSTWA_1
 10
1145.666656462648
 20
802.5788537664448
 30
0.0
  0
VERTEX
  5
1C9
  8
WARSTWA_1
 10
1145.470358664978
 20
802.4889707588627
 30
0.0
  0
VERTEX
  5
1CA
  8
WARSTWA_1
 10
1145.271559597377
 20
802.3994039479221
 30
0.0
  0
VERTEX
  5
1CB
  8
WARSTWA_1
 10
1145.070210699107
 20
802.310139234969
 30
0.0
  0
VERTEX
  5
1CC
  8
WARSTWA_1
 10
1144.866263409427
 20
802.2211625213513
 30
0.0
  0
VERTEX
  5
1CD
  8
WARSTWA_1
 10
1144.659669167602
 20
802.1324597084185
 30
0.0
  0
VERTEX
  5
1CE
  8
WARSTWA_1
 10
1144.607601330162
 20
802.110325149979
 30
0.0
  0
VERTEX
  5
1CF
  8
WARSTWA_1
 10
1144.594557958517
 20
802.1047940216831
 30
0.0
  0
VERTEX
  5
1D0
  8
WARSTWA_1
 10
1144.587510861393
 20
802.1018078543166
 30
0.0
  0
VERTEX
  5
1D1
  8
WARSTWA_1
 10
1144.579419627808
 20
802.098380788515
 30
0.0
  0
VERTEX
  5
1D2
  8
WARSTWA_1
 10
1144.547049132208
 20
802.0846871123231
 30
0.0
  0
VERTEX
  5
1D3
  8
WARSTWA_1
 10
1144.417478583431
 20
802.0301447225083
 30
0.0
  0
VERTEX
  5
1D4
  8
WARSTWA_1
 10
1144.157917284396
 20
801.9221622513032
 30
0.0
  0
VERTEX
  5
1D5
  8
WARSTWA_1
 10
1143.897805803159
 20
801.8156232612855
 30
0.0
  0
VERTEX
  5
1D6
  8
WARSTWA_1
 10
1143.637156243455
 20
801.710496236401
 30
0.0
  0
VERTEX
  5
1D7
  8
WARSTWA_1
 10
1143.375980709017
 20
801.6067496605938
 30
0.0
  0
VERTEX
  5
1D8
  8
WARSTWA_1
 10
1143.11429130358
 20
801.5043520178042
 30
0.0
  0
VERTEX
  5
1D9
  8
WARSTWA_1
 10
1142.852100130875
 20
801.4032717919818
 30
0.0
  0
VERTEX
  5
1DA
  8
WARSTWA_1
 10
1142.326260898602
 20
801.2049375270053
 30
0.0
  0
VERTEX
  5
1DB
  8
WARSTWA_1
 10
1141.798559842066
 20
801.0114947372222
 30
0.0
  0
VERTEX
  5
1DC
  8
WARSTWA_1
 10
1141.269093791134
 20
800.8226912941791
 30
0.0
  0
VERTEX
  5
1DD
  8
WARSTWA_1
 10
1140.737959575676
 20
800.6382750694356
 30
0.0
  0
VERTEX
  5
1DE
  8
WARSTWA_1
 10
1140.205254025558
 20
800.457993934544
 30
0.0
  0
VERTEX
  5
1DF
  8
WARSTWA_1
 10
1139.671073970651
 20
800.2815957610546
 30
0.0
  0
VERTEX
  5
1E0
  8
WARSTWA_1
 10
1139.135516240822
 20
800.1088284205271
 30
0.0
  0
VERTEX
  5
1E1
  8
WARSTWA_1
 10
1138.598677665939
 20
799.9394397845099
 30
0.0
  0
VERTEX
  5
1E2
  8
WARSTWA_1
 10
1138.060655075871
 20
799.7731777245626
 30
0.0
  0
VERTEX
  5
1E3
  8
WARSTWA_1
 10
1137.521545300487
 20
799.6097901122303
 30
0.0
  0
VERTEX
  5
1E4
  8
WARSTWA_1
 10
1136.981445169654
 20
799.4490248190777
 30
0.0
  0
VERTEX
  5
1E5
  8
WARSTWA_1
 10
1136.440451513241
 20
799.2906297166519
 30
0.0
  0
VERTEX
  5
1E6
  8
WARSTWA_1
 10
1135.898661161115
 20
799.1343526765068
 30
0.0
  0
VERTEX
  5
1E7
  8
WARSTWA_1
 10
1135.356170943147
 20
798.9799415702
 30
0.0
  0
VERTEX
  5
1E8
  8
WARSTWA_1
 10
1134.813077689204
 20
798.8271442692785
 30
0.0
  0
VERTEX
  5
1E9
  8
WARSTWA_1
 10
1134.269478229154
 20
798.6757086453053
 30
0.0
  0
VERTEX
  5
1EA
  8
WARSTWA_1
 10
1133.181148010206
 20
798.3759139144004
 30
0.0
  0
VERTEX
  5
1EB
  8
WARSTWA_1
 10
1131.002673613236
 20
797.7815709242841
 30
0.0
  0
VERTEX
  5
1EC
  8
WARSTWA_1
 10
1129.914078713106
 20
797.4829886099324
 30
0.0
  0
VERTEX
  5
1ED
  8
WARSTWA_1
 10
1128.82694486381
 20
797.1807763792949
 30
0.0
  0
VERTEX
  5
1EE
  8
WARSTWA_1
 10
1128.284167907897
 20
797.027678724251
 30
0.0
  0
VERTEX
  5
1EF
  8
WARSTWA_1
 10
1127.742046704294
 20
796.8729172048006
 30
0.0
  0
VERTEX
  5
1F0
  8
WARSTWA_1
 10
1127.200678082874
 20
796.7162396924905
 30
0.0
  0
VERTEX
  5
1F1
  8
WARSTWA_1
 10
1126.660158873504
 20
796.5573940588783
 30
0.0
  0
VERTEX
  5
1F2
  8
WARSTWA_1
 10
1126.120585906052
 20
796.3961281755182
 30
0.0
  0
VERTEX
  5
1F3
  8
WARSTWA_1
 10
1125.582056010386
 20
796.2321899139624
 30
0.0
  0
VERTEX
  5
1F4
  8
WARSTWA_1
 10
1125.044666016376
 20
796.0653271457668
 30
0.0
  0
VERTEX
  5
1F5
  8
WARSTWA_1
 10
1124.508512753889
 20
795.8952877424817
 30
0.0
  0
VERTEX
  5
1F6
  8
WARSTWA_1
 10
1123.973693052792
 20
795.721819575665
 30
0.0
  0
VERTEX
  5
1F7
  8
WARSTWA_1
 10
1123.440303742957
 20
795.5446705168688
 30
0.0
  0
VERTEX
  5
1F8
  8
WARSTWA_1
 10
1122.90844165425
 20
795.3635884376454
 30
0.0
  0
VERTEX
  5
1F9
  8
WARSTWA_1
 10
1122.378203616539
 20
795.1783212095488
 30
0.0
  0
VERTEX
  5
1FA
  8
WARSTWA_1
 10
1121.849686459692
 20
794.9886167041368
 30
0.0
  0
VERTEX
  5
1FB
  8
WARSTWA_1
 10
1121.717837405366
 20
794.9404677069015
 30
0.0
  0
VERTEX
  5
1FC
  8
WARSTWA_1
 10
1121.684893070167
 20
794.9283842009518
 30
0.0
  0
VERTEX
  5
1FD
  8
WARSTWA_1
 10
1121.676658113355
 20
794.9253604165933
 30
0.0
  0
VERTEX
  5
1FE
  8
WARSTWA_1
 10
1121.67459944469
 20
794.9246042885006
 30
0.0
  0
VERTEX
  5
1FF
  8
WARSTWA_1
 10
1121.671240432532
 20
794.9233703815298
 30
0.0
  0
VERTEX
  5
200
  8
WARSTWA_1
 10
1121.663222856973
 20
794.9204246154022
 30
0.0
  0
VERTEX
  5
201
  8
WARSTWA_1
 10
1121.631164715298
 20
794.9086382215701
 30
0.0
  0
VERTEX
  5
202
  8
WARSTWA_1
 10
1121.50312637455
 20
794.861439288632
 30
0.0
  0
VERTEX
  5
203
  8
WARSTWA_1
 10
1120.994058675588
 20
794.6717841747995
 30
0.0
  0
VERTEX
  5
204
  8
WARSTWA_1
 10
1120.489867830135
 20
794.4807385243184
 30
0.0
  0
VERTEX
  5
205
  8
WARSTWA_1
 10
1119.990473559583
 20
794.2882816367655
 30
0.0
  0
VERTEX
  5
206
  8
WARSTWA_1
 10
1119.495795585328
 20
794.0943928117122
 30
0.0
  0
VERTEX
  5
207
  8
WARSTWA_1
 10
1119.005753628769
 20
793.8990513487333
 30
0.0
  0
VERTEX
  5
208
  8
WARSTWA_1
 10
1118.520267411298
 20
793.702236547404
 30
0.0
  0
VERTEX
  5
209
  8
WARSTWA_1
 10
1118.039256654313
 20
793.5039277072956
 30
0.0
  0
VERTEX
  5
20A
  8
WARSTWA_1
 10
1117.562641079209
 20
793.3041041279866
 30
0.0
  0
VERTEX
  5
20B
  8
WARSTWA_1
 10
1117.090340407383
 20
793.1027451090467
 30
0.0
  0
VERTEX
  5
20C
  8
WARSTWA_1
 10
1116.622274360229
 20
792.8998299500508
 30
0.0
  0
VERTEX
  5
20D
  8
WARSTWA_1
 10
1116.158362659146
 20
792.6953379505758
 30
0.0
  0
VERTEX
  5
20E
  8
WARSTWA_1
 10
1115.698525025527
 20
792.4892484101929
 30
0.0
  0
VERTEX
  5
20F
  8
WARSTWA_1
 10
1115.242681180768
 20
792.2815406284753
 30
0.0
  0
VERTEX
  5
210
  8
WARSTWA_1
 10
1114.790750846266
 20
792.0721939049981
 30
0.0
  0
VERTEX
  5
211
  8
WARSTWA_1
 10
1114.342653743416
 20
791.8611875393381
 30
0.0
  0
VERTEX
  5
212
  8
WARSTWA_1
 10
1113.898309593615
 20
791.6485008310665
 30
0.0
  0
VERTEX
  5
213
  8
WARSTWA_1
 10
1113.457638118258
 20
791.4341130797566
 30
0.0
  0
VERTEX
  5
214
  8
WARSTWA_1
 10
1113.02055903874
 20
791.2180035849833
 30
0.0
  0
VERTEX
  5
215
  8
WARSTWA_1
 10
1112.586992076459
 20
791.0001516463217
 30
0.0
  0
VERTEX
  5
216
  8
WARSTWA_1
 10
1112.15685695281
 20
790.7805365633449
 30
0.0
  0
VERTEX
  5
217
  8
WARSTWA_1
 10
1111.730073389187
 20
790.5591376356278
 30
0.0
  0
VERTEX
  5
218
  8
WARSTWA_1
 10
1111.306561106988
 20
790.3359341627438
 30
0.0
  0
VERTEX
  5
219
  8
WARSTWA_1
 10
1110.886239827609
 20
790.1109054442641
 30
0.0
  0
VERTEX
  5
21A
  8
WARSTWA_1
 10
1110.469029272444
 20
789.8840307797691
 30
0.0
  0
VERTEX
  5
21B
  8
WARSTWA_1
 10
1110.054849162892
 20
789.6552894688248
 30
0.0
  0
VERTEX
  5
21C
  8
WARSTWA_1
 10
1109.643619220345
 20
789.4246608110134
 30
0.0
  0
VERTEX
  5
21D
  8
WARSTWA_1
 10
1109.2352591662
 20
789.1921241059044
 30
0.0
  0
VERTEX
  5
21E
  8
WARSTWA_1
 10
1108.829688721855
 20
788.9576586530711
 30
0.0
  0
VERTEX
  5
21F
  8
WARSTWA_1
 10
1108.426827608704
 20
788.7212437520884
 30
0.0
  0
VERTEX
  5
220
  8
WARSTWA_1
 10
1108.026595548144
 20
788.4828587025331
 30
0.0
  0
VERTEX
  5
221
  8
WARSTWA_1
 10
1107.62891226157
 20
788.2424828039748
 30
0.0
  0
VERTEX
  5
222
  8
WARSTWA_1
 10
1107.233697470376
 20
788.0000953559902
 30
0.0
  0
VERTEX
  5
223
  8
WARSTWA_1
 10
1106.840870895962
 20
787.7556756581544
 30
0.0
  0
VERTEX
  5
224
  8
WARSTWA_1
 10
1106.450352259721
 20
787.5092030100368
 30
0.0
  0
VERTEX
  5
225
  8
WARSTWA_1
 10
1106.062061283049
 20
787.2606567112161
 30
0.0
  0
VERTEX
  5
226
  8
WARSTWA_1
 10
1105.675917687343
 20
787.0100160612656
 30
0.0
  0
VERTEX
  5
227
  8
WARSTWA_1
 10
1105.291841193998
 20
786.7572603597564
 30
0.0
  0
VERTEX
  5
228
  8
WARSTWA_1
 10
1104.909751524411
 20
786.5023689062637
 30
0.0
  0
VERTEX
  5
229
  8
WARSTWA_1
 10
1104.529568399977
 20
786.2453210003641
 30
0.0
  0
VERTEX
  5
22A
  8
WARSTWA_1
 10
1104.15121154209
 20
785.986095941631
 30
0.0
  0
VERTEX
  5
22B
  8
WARSTWA_1
 10
1103.774600672148
 20
785.7246730296356
 30
0.0
  0
VERTEX
  5
22C
  8
WARSTWA_1
 10
1103.399655511549
 20
785.4610315639529
 30
0.0
  0
VERTEX
  5
22D
  8
WARSTWA_1
 10
1103.026295781684
 20
785.1951508441598
 30
0.0
  0
VERTEX
  5
22E
  8
WARSTWA_1
 10
1102.654441203951
 20
784.9270101698257
 30
0.0
  0
VERTEX
  5
22F
  8
WARSTWA_1
 10
1102.284011499748
 20
784.6565888405275
 30
0.0
  0
VERTEX
  5
230
  8
WARSTWA_1
 10
1101.914926390467
 20
784.3838661558402
 30
0.0
  0
VERTEX
  5
231
  8
WARSTWA_1
 10
1101.547105597509
 20
784.1088214153333
 30
0.0
  0
VERTEX
  5
232
  8
WARSTWA_1
 10
1101.180468842264
 20
783.8314339185872
 30
0.0
  0
VERTEX
  5
233
  8
WARSTWA_1
 10
1100.814935846131
 20
783.5516829651733
 30
0.0
  0
VERTEX
  5
234
  8
WARSTWA_1
 10
1100.450426330505
 20
783.2695478546611
 30
0.0
  0
VERTEX
  5
235
  8
WARSTWA_1
 10
1100.086860016783
 20
782.9850078866293
 30
0.0
  0
VERTEX
  5
236
  8
WARSTWA_1
 10
1099.72415662636
 20
782.6980423606528
 30
0.0
  0
VERTEX
  5
237
  8
WARSTWA_1
 10
1099.362235880631
 20
782.408630576303
 30
0.0
  0
VERTEX
  5
238
  8
WARSTWA_1
 10
1099.001017500994
 20
782.1167518331549
 30
0.0
  0
VERTEX
  5
239
  8
WARSTWA_1
 10
1098.640421208844
 20
781.8223854307817
 30
0.0
  0
VERTEX
  5
23A
  8
WARSTWA_1
 10
1098.280366725576
 20
781.5255106687582
 30
0.0
  0
VERTEX
  5
23B
  8
WARSTWA_1
 10
1097.920773772586
 20
781.2261068466596
 30
0.0
  0
VERTEX
  5
23C
  8
WARSTWA_1
 10
1097.561562071271
 20
780.9241532640572
 30
0.0
  0
VERTEX
  5
23D
  8
WARSTWA_1
 10
1097.202651343025
 20
780.6196292205259
 30
0.0
  0
VERTEX
  5
23E
  8
WARSTWA_1
 10
1096.843961309245
 20
780.3125140156426
 30
0.0
  0
VERTEX
  5
23F
  8
WARSTWA_1
 10
1096.485411691327
 20
780.0027869489768
 30
0.0
  0
VERTEX
  5
240
  8
WARSTWA_1
 10
1096.126922210668
 20
779.6904273201071
 30
0.0
  0
VERTEX
  5
241
  8
WARSTWA_1
 10
1095.768412588661
 20
779.3754144286013
 30
0.0
  0
VERTEX
  5
242
  8
WARSTWA_1
 10
1095.409802546705
 20
779.0577275740397
 30
0.0
  0
VERTEX
  5
243
  8
WARSTWA_1
 10
1095.051011806192
 20
778.7373460559957
 30
0.0
  0
VERTEX
  5
244
  8
WARSTWA_1
 10
1094.691960088522
 20
778.4142491740386
 30
0.0
  0
VERTEX
  5
245
  8
WARSTWA_1
 10
1094.332567115089
 20
778.0884162277453
 30
0.0
  0
VERTEX
  5
246
  8
WARSTWA_1
 10
1093.972752607287
 20
777.7598265166926
 30
0.0
  0
VERTEX
  5
247
  8
WARSTWA_1
 10
1093.612436286516
 20
777.4284593404482
 30
0.0
  0
VERTEX
  5
248
  8
WARSTWA_1
 10
1093.251537874167
 20
777.0942939985925
 30
0.0
  0
VERTEX
  5
249
  8
WARSTWA_1
 10
1092.889977091641
 20
776.7573097906934
 30
0.0
  0
VERTEX
  5
24A
  8
WARSTWA_1
 10
1092.527673660329
 20
776.417486016333
 30
0.0
  0
VERTEX
  5
24B
  8
WARSTWA_1
 10
1092.164547301631
 20
776.0748019750772
 30
0.0
  0
VERTEX
  5
24C
  8
WARSTWA_1
 10
1091.80051773694
 20
775.7292369665029
 30
0.0
  0
VERTEX
  5
24D
  8
WARSTWA_1
 10
1091.435504687652
 20
775.3807702901868
 30
0.0
  0
VERTEX
  5
24E
  8
WARSTWA_1
 10
1091.069427875165
 20
775.0293812457003
 30
0.0
  0
VERTEX
  5
24F
  8
WARSTWA_1
 10
1090.702207020873
 20
774.6750491326166
 30
0.0
  0
VERTEX
  5
250
  8
WARSTWA_1
 10
1090.333761846172
 20
774.3177532505106
 30
0.0
  0
VERTEX
  5
251
  8
WARSTWA_1
 10
1089.964012072459
 20
773.9574728989592
 30
0.0
  0
VERTEX
  5
252
  8
WARSTWA_1
 10
1089.592877421128
 20
773.59418737753
 30
0.0
  0
VERTEX
  5
253
  8
WARSTWA_1
 10
1089.277963691345
 20
773.2845884880705
 30
0.0
  0
SEQEND
  5
5CE
  8
WARSTWA_1
  0
POLYLINE
  5
74
  8
WARSTWA_1
 66
     1
 10
0.0
 20
0.0
 30
0.0
 70
     1
  0
VERTEX
  5
254
  8
WARSTWA_1
 10
1089.277963691345
 20
751.9024708073339
 30
0.0
  0
VERTEX
  5
255
  8
WARSTWA_1
 10
1089.592877421128
 20
752.2120696967934
 30
0.0
  0
VERTEX
  5
256
  8
WARSTWA_1
 10
1089.964012072459
 20
752.5753552182225
 30
0.0
  0
VERTEX
  5
257
  8
WARSTWA_1
 10
1090.333761846172
 20
752.9356355697739
 30
0.0
  0
VERTEX
  5
258
  8
WARSTWA_1
 10
1090.702207020873
 20
753.2929314518799
 30
0.0
  0
VERTEX
  5
259
  8
WARSTWA_1
 10
1091.069427875165
 20
753.6472635649636
 30
0.0
  0
VERTEX
  5
25A
  8
WARSTWA_1
 10
1091.435504687652
 20
753.9986526094501
 30
0.0
  0
VERTEX
  5
25B
  8
WARSTWA_1
 10
1091.80051773694
 20
754.3471192857662
 30
0.0
  0
VERTEX
  5
25C
  8
WARSTWA_1
 10
1092.164547301631
 20
754.6926842943406
 30
0.0
  0
VERTEX
  5
25D
  8
WARSTWA_1
 10
1092.527673660329
 20
755.0353683355963
 30
0.0
  0
VERTEX
  5
25E
  8
WARSTWA_1
 10
1092.889977091641
 20
755.3751921099567
 30
0.0
  0
VERTEX
  5
25F
  8
WARSTWA_1
 10
1093.251537874167
 20
755.7121763178559
 30
0.0
  0
VERTEX
  5
260
  8
WARSTWA_1
 10
1093.612436286516
 20
756.0463416597115
 30
0.0
  0
VERTEX
  5
261
  8
WARSTWA_1
 10
1093.972752607287
 20
756.3777088359559
 30
0.0
  0
VERTEX
  5
262
  8
WARSTWA_1
 10
1094.332567115089
 20
756.7062985470086
 30
0.0
  0
VERTEX
  5
263
  8
WARSTWA_1
 10
1094.691960088522
 20
757.0321314933019
 30
0.0
  0
VERTEX
  5
264
  8
WARSTWA_1
 10
1095.051011806192
 20
757.355228375259
 30
0.0
  0
VERTEX
  5
265
  8
WARSTWA_1
 10
1095.409802546705
 20
757.6756098933031
 30
0.0
  0
VERTEX
  5
266
  8
WARSTWA_1
 10
1095.768412588661
 20
757.9932967478646
 30
0.0
  0
VERTEX
  5
267
  8
WARSTWA_1
 10
1096.126922210668
 20
758.3083096393705
 30
0.0
  0
VERTEX
  5
268
  8
WARSTWA_1
 10
1096.485411691327
 20
758.6206692682401
 30
0.0
  0
VERTEX
  5
269
  8
WARSTWA_1
 10
1096.843961309245
 20
758.9303963349059
 30
0.0
  0
VERTEX
  5
26A
  8
WARSTWA_1
 10
1097.202651343025
 20
759.2375115397892
 30
0.0
  0
VERTEX
  5
26B
  8
WARSTWA_1
 10
1097.561562071271
 20
759.5420355833205
 30
0.0
  0
VERTEX
  5
26C
  8
WARSTWA_1
 10
1097.920773772586
 20
759.843989165923
 30
0.0
  0
VERTEX
  5
26D
  8
WARSTWA_1
 10
1098.280366725576
 20
760.1433929880216
 30
0.0
  0
VERTEX
  5
26E
  8
WARSTWA_1
 10
1098.640421208844
 20
760.440267750045
 30
0.0
  0
VERTEX
  5
26F
  8
WARSTWA_1
 10
1099.001017500994
 20
760.7346341524183
 30
0.0
  0
VERTEX
  5
270
  8
WARSTWA_1
 10
1099.362235880631
 20
761.0265128955664
 30
0.0
  0
VERTEX
  5
271
  8
WARSTWA_1
 10
1099.72415662636
 20
761.3159246799162
 30
0.0
  0
VERTEX
  5
272
  8
WARSTWA_1
 10
1100.086860016783
 20
761.6028902058927
 30
0.0
  0
VERTEX
  5
273
  8
WARSTWA_1
 10
1100.450426330505
 20
761.8874301739245
 30
0.0
  0
VERTEX
  5
274
  8
WARSTWA_1
 10
1100.814935846131
 20
762.1695652844367
 30
0.0
  0
VERTEX
  5
275
  8
WARSTWA_1
 10
1101.180468842264
 20
762.4493162378506
 30
0.0
  0
VERTEX
  5
276
  8
WARSTWA_1
 10
1101.547105597509
 20
762.7267037345966
 30
0.0
  0
VERTEX
  5
277
  8
WARSTWA_1
 10
1101.914926390467
 20
763.0017484751036
 30
0.0
  0
VERTEX
  5
278
  8
WARSTWA_1
 10
1102.284011499748
 20
763.2744711597909
 30
0.0
  0
VERTEX
  5
279
  8
WARSTWA_1
 10
1102.654441203951
 20
763.5448924890891
 30
0.0
  0
VERTEX
  5
27A
  8
WARSTWA_1
 10
1103.026295781684
 20
763.8130331634231
 30
0.0
  0
VERTEX
  5
27B
  8
WARSTWA_1
 10
1103.399655511549
 20
764.0789138832163
 30
0.0
  0
VERTEX
  5
27C
  8
WARSTWA_1
 10
1103.774600672148
 20
764.3425553488989
 30
0.0
  0
VERTEX
  5
27D
  8
WARSTWA_1
 10
1104.15121154209
 20
764.6039782608943
 30
0.0
  0
VERTEX
  5
27E
  8
WARSTWA_1
 10
1104.529568399977
 20
764.8632033196275
 30
0.0
  0
VERTEX
  5
27F
  8
WARSTWA_1
 10
1104.909751524411
 20
765.120251225527
 30
0.0
  0
VERTEX
  5
280
  8
WARSTWA_1
 10
1105.291841193998
 20
765.3751426790197
 30
0.0
  0
VERTEX
  5
281
  8
WARSTWA_1
 10
1105.675917687343
 20
765.6278983805289
 30
0.0
  0
VERTEX
  5
282
  8
WARSTWA_1
 10
1106.062061283049
 20
765.8785390304795
 30
0.0
  0
VERTEX
  5
283
  8
WARSTWA_1
 10
1106.450352259721
 20
766.1270853293001
 30
0.0
  0
VERTEX
  5
284
  8
WARSTWA_1
 10
1106.840870895962
 20
766.3735579774177
 30
0.0
  0
VERTEX
  5
285
  8
WARSTWA_1
 10
1107.233697470376
 20
766.6179776752535
 30
0.0
  0
VERTEX
  5
286
  8
WARSTWA_1
 10
1107.62891226157
 20
766.8603651232381
 30
0.0
  0
VERTEX
  5
287
  8
WARSTWA_1
 10
1108.026595548144
 20
767.1007410217965
 30
0.0
  0
VERTEX
  5
288
  8
WARSTWA_1
 10
1108.426827608704
 20
767.3391260713518
 30
0.0
  0
VERTEX
  5
289
  8
WARSTWA_1
 10
1108.829688721855
 20
767.5755409723345
 30
0.0
  0
VERTEX
  5
28A
  8
WARSTWA_1
 10
1109.2352591662
 20
767.8100064251678
 30
0.0
  0
VERTEX
  5
28B
  8
WARSTWA_1
 10
1109.643619220345
 20
768.0425431302767
 30
0.0
  0
VERTEX
  5
28C
  8
WARSTWA_1
 10
1110.054849162892
 20
768.2731717880881
 30
0.0
  0
VERTEX
  5
28D
  8
WARSTWA_1
 10
1110.469029272444
 20
768.5019130990324
 30
0.0
  0
VERTEX
  5
28E
  8
WARSTWA_1
 10
1110.886239827609
 20
768.7287877635274
 30
0.0
  0
VERTEX
  5
28F
  8
WARSTWA_1
 10
1111.306561106988
 20
768.9538164820071
 30
0.0
  0
VERTEX
  5
290
  8
WARSTWA_1
 10
1111.730073389187
 20
769.1770199548912
 30
0.0
  0
VERTEX
  5
291
  8
WARSTWA_1
 10
1112.15685695281
 20
769.3984188826082
 30
0.0
  0
VERTEX
  5
292
  8
WARSTWA_1
 10
1112.586992076459
 20
769.618033965585
 30
0.0
  0
VERTEX
  5
293
  8
WARSTWA_1
 10
1113.02055903874
 20
769.8358859042467
 30
0.0
  0
VERTEX
  5
294
  8
WARSTWA_1
 10
1113.457638118258
 20
770.0519953990199
 30
0.0
  0
VERTEX
  5
295
  8
WARSTWA_1
 10
1113.898309593615
 20
770.2663831503298
 30
0.0
  0
VERTEX
  5
296
  8
WARSTWA_1
 10
1114.342653743416
 20
770.4790698586014
 30
0.0
  0
VERTEX
  5
297
  8
WARSTWA_1
 10
1114.790750846266
 20
770.6900762242615
 30
0.0
  0
VERTEX
  5
298
  8
WARSTWA_1
 10
1115.242681180768
 20
770.8994229477387
 30
0.0
  0
VERTEX
  5
299
  8
WARSTWA_1
 10
1115.698525025527
 20
771.1071307294562
 30
0.0
  0
VERTEX
  5
29A
  8
WARSTWA_1
 10
1116.158362659146
 20
771.3132202698391
 30
0.0
  0
VERTEX
  5
29B
  8
WARSTWA_1
 10
1116.622274360229
 20
771.5177122693142
 30
0.0
  0
VERTEX
  5
29C
  8
WARSTWA_1
 10
1117.090340407383
 20
771.7206274283101
 30
0.0
  0
VERTEX
  5
29D
  8
WARSTWA_1
 10
1117.562641079209
 20
771.92198644725
 30
0.0
  0
VERTEX
  5
29E
  8
WARSTWA_1
 10
1118.039256654313
 20
772.1218100265589
 30
0.0
  0
VERTEX
  5
29F
  8
WARSTWA_1
 10
1118.520267411298
 20
772.3201188666674
 30
0.0
  0
VERTEX
  5
2A0
  8
WARSTWA_1
 10
1119.005753628769
 20
772.5169336679967
 30
0.0
  0
VERTEX
  5
2A1
  8
WARSTWA_1
 10
1119.495795585328
 20
772.7122751309755
 30
0.0
  0
VERTEX
  5
2A2
  8
WARSTWA_1
 10
1119.990473559583
 20
772.9061639560289
 30
0.0
  0
VERTEX
  5
2A3
  8
WARSTWA_1
 10
1120.489867830135
 20
773.0986208435818
 30
0.0
  0
VERTEX
  5
2A4
  8
WARSTWA_1
 10
1120.994058675588
 20
773.2896664940629
 30
0.0
  0
VERTEX
  5
2A5
  8
WARSTWA_1
 10
1121.50312637455
 20
773.4793216078954
 30
0.0
  0
VERTEX
  5
2A6
  8
WARSTWA_1
 10
1121.631164715298
 20
773.5265205408334
 30
0.0
  0
VERTEX
  5
2A7
  8
WARSTWA_1
 10
1121.663222856973
 20
773.5383069346656
 30
0.0
  0
VERTEX
  5
2A8
  8
WARSTWA_1
 10
1121.671240432532
 20
773.5412527007932
 30
0.0
  0
VERTEX
  5
2A9
  8
WARSTWA_1
 10
1121.67459944469
 20
773.542486607764
 30
0.0
  0
VERTEX
  5
2AA
  8
WARSTWA_1
 10
1121.676658113355
 20
773.5432427358567
 30
0.0
  0
VERTEX
  5
2AB
  8
WARSTWA_1
 10
1121.684893070167
 20
773.5462665202151
 30
0.0
  0
VERTEX
  5
2AC
  8
WARSTWA_1
 10
1121.717837405366
 20
773.5583500261648
 30
0.0
  0
VERTEX
  5
2AD
  8
WARSTWA_1
 10
1121.849686459692
 20
773.6064990234001
 30
0.0
  0
VERTEX
  5
2AE
  8
WARSTWA_1
 10
1122.378203616539
 20
773.7962035288122
 30
0.0
  0
VERTEX
  5
2AF
  8
WARSTWA_1
 10
1122.90844165425
 20
773.9814707569087
 30
0.0
  0
VERTEX
  5
2B0
  8
WARSTWA_1
 10
1123.440303742957
 20
774.1625528361321
 30
0.0
  0
VERTEX
  5
2B1
  8
WARSTWA_1
 10
1123.973693052792
 20
774.3397018949283
 30
0.0
  0
VERTEX
  5
2B2
  8
WARSTWA_1
 10
1124.508512753889
 20
774.5131700617451
 30
0.0
  0
VERTEX
  5
2B3
  8
WARSTWA_1
 10
1125.044666016376
 20
774.6832094650301
 30
0.0
  0
VERTEX
  5
2B4
  8
WARSTWA_1
 10
1125.582056010386
 20
774.8500722332258
 30
0.0
  0
VERTEX
  5
2B5
  8
WARSTWA_1
 10
1126.120585906052
 20
775.0140104947816
 30
0.0
  0
VERTEX
  5
2B6
  8
WARSTWA_1
 10
1126.660158873504
 20
775.1752763781417
 30
0.0
  0
VERTEX
  5
2B7
  8
WARSTWA_1
 10
1127.200678082874
 20
775.3341220117538
 30
0.0
  0
VERTEX
  5
2B8
  8
WARSTWA_1
 10
1127.742046704294
 20
775.490799524064
 30
0.0
  0
VERTEX
  5
2B9
  8
WARSTWA_1
 10
1128.284167907897
 20
775.6455610435144
 30
0.0
  0
VERTEX
  5
2BA
  8
WARSTWA_1
 10
1128.82694486381
 20
775.7986586985583
 30
0.0
  0
VERTEX
  5
2BB
  8
WARSTWA_1
 10
1129.914078713106
 20
776.1008709291957
 30
0.0
  0
VERTEX
  5
2BC
  8
WARSTWA_1
 10
1131.002673613236
 20
776.3994532435474
 30
0.0
  0
VERTEX
  5
2BD
  8
WARSTWA_1
 10
1133.181148010206
 20
776.9937962336637
 30
0.0
  0
VERTEX
  5
2BE
  8
WARSTWA_1
 10
1134.269478229154
 20
777.2935909645687
 30
0.0
  0
VERTEX
  5
2BF
  8
WARSTWA_1
 10
1134.813077689204
 20
777.4450265885419
 30
0.0
  0
VERTEX
  5
2C0
  8
WARSTWA_1
 10
1135.356170943147
 20
777.5978238894634
 30
0.0
  0
VERTEX
  5
2C1
  8
WARSTWA_1
 10
1135.898661161115
 20
777.7522349957701
 30
0.0
  0
VERTEX
  5
2C2
  8
WARSTWA_1
 10
1136.440451513241
 20
777.9085120359152
 30
0.0
  0
VERTEX
  5
2C3
  8
WARSTWA_1
 10
1136.981445169654
 20
778.0669071383411
 30
0.0
  0
VERTEX
  5
2C4
  8
WARSTWA_1
 10
1137.521545300487
 20
778.2276724314936
 30
0.0
  0
VERTEX
  5
2C5
  8
WARSTWA_1
 10
1138.060655075871
 20
778.391060043826
 30
0.0
  0
VERTEX
  5
2C6
  8
WARSTWA_1
 10
1138.598677665939
 20
778.5573221037732
 30
0.0
  0
VERTEX
  5
2C7
  8
WARSTWA_1
 10
1139.135516240822
 20
778.7267107397904
 30
0.0
  0
VERTEX
  5
2C8
  8
WARSTWA_1
 10
1139.671073970651
 20
778.899478080318
 30
0.0
  0
VERTEX
  5
2C9
  8
WARSTWA_1
 10
1140.205254025558
 20
779.0758762538073
 30
0.0
  0
VERTEX
  5
2CA
  8
WARSTWA_1
 10
1140.737959575676
 20
779.256157388699
 30
0.0
  0
VERTEX
  5
2CB
  8
WARSTWA_1
 10
1141.269093791134
 20
779.4405736134424
 30
0.0
  0
VERTEX
  5
2CC
  8
WARSTWA_1
 10
1141.798559842066
 20
779.6293770564855
 30
0.0
  0
VERTEX
  5
2CD
  8
WARSTWA_1
 10
1142.326260898602
 20
779.8228198462687
 30
0.0
  0
VERTEX
  5
2CE
  8
WARSTWA_1
 10
1142.852100130875
 20
780.0211541112451
 30
0.0
  0
VERTEX
  5
2CF
  8
WARSTWA_1
 10
1143.11429130358
 20
780.1222343370675
 30
0.0
  0
VERTEX
  5
2D0
  8
WARSTWA_1
 10
1143.375980709017
 20
780.2246319798571
 30
0.0
  0
VERTEX
  5
2D1
  8
WARSTWA_1
 10
1143.637156243455
 20
780.3283785556644
 30
0.0
  0
VERTEX
  5
2D2
  8
WARSTWA_1
 10
1143.897805803159
 20
780.4335055805489
 30
0.0
  0
VERTEX
  5
2D3
  8
WARSTWA_1
 10
1144.157917284396
 20
780.5400445705666
 30
0.0
  0
VERTEX
  5
2D4
  8
WARSTWA_1
 10
1144.417478583431
 20
780.6480270417717
 30
0.0
  0
VERTEX
  5
2D5
  8
WARSTWA_1
 10
1144.547049132208
 20
780.7025694315864
 30
0.0
  0
VERTEX
  5
2D6
  8
WARSTWA_1
 10
1144.579419627808
 20
780.7162631077783
 30
0.0
  0
VERTEX
  5
2D7
  8
WARSTWA_1
 10
1144.587510861393
 20
780.7196901735799
 30
0.0
  0
VERTEX
  5
2D8
  8
WARSTWA_1
 10
1144.594557958517
 20
780.7226763409465
 30
0.0
  0
VERTEX
  5
2D9
  8
WARSTWA_1
 10
1144.607601330162
 20
780.7282074692423
 30
0.0
  0
VERTEX
  5
2DA
  8
WARSTWA_1
 10
1144.659669167602
 20
780.7503420276819
 30
0.0
  0
VERTEX
  5
2DB
  8
WARSTWA_1
 10
1144.866263409427
 20
780.8390448406146
 30
0.0
  0
VERTEX
  5
2DC
  8
WARSTWA_1
 10
1145.070210699107
 20
780.9280215542324
 30
0.0
  0
VERTEX
  5
2DD
  8
WARSTWA_1
 10
1145.271559597377
 20
781.0172862671855
 30
0.0
  0
VERTEX
  5
2DE
  8
WARSTWA_1
 10
1145.470358664978
 20
781.106853078126
 30
0.0
  0
VERTEX
  5
2DF
  8
WARSTWA_1
 10
1145.666656462648
 20
781.1967360857082
 30
0.0
  0
VERTEX
  5
2E0
  8
WARSTWA_1
 10
1145.860501551128
 20
781.2869493885839
 30
0.0
  0
VERTEX
  5
2E1
  8
WARSTWA_1
 10
1146.051942491158
 20
781.3775070854074
 30
0.0
  0
VERTEX
  5
2E2
  8
WARSTWA_1
 10
1146.241027843473
 20
781.4684232748289
 30
0.0
  0
VERTEX
  5
2E3
  8
WARSTWA_1
 10
1146.427806168815
 20
781.5597120555042
 30
0.0
  0
VERTEX
  5
2E4
  8
WARSTWA_1
 10
1146.612326027922
 20
781.6513875260837
 30
0.0
  0
VERTEX
  5
2E5
  8
WARSTWA_1
 10
1146.794635981533
 20
781.7434637852232
 30
0.0
  0
VERTEX
  5
2E6
  8
WARSTWA_1
 10
1146.974784590387
 20
781.8359549315712
 30
0.0
  0
VERTEX
  5
2E7
  8
WARSTWA_1
 10
1147.152820415223
 20
781.9288750637872
 30
0.0
  0
VERTEX
  5
2E8
  8
WARSTWA_1
 10
1147.328792016781
 20
782.022238280518
 30
0.0
  0
VERTEX
  5
2E9
  8
WARSTWA_1
 10
1147.5027479558
 20
782.1160586804174
 30
0.0
  0
VERTEX
  5
2EA
  8
WARSTWA_1
 10
1147.674736793017
 20
782.2103503621395
 30
0.0
  0
VERTEX
  5
2EB
  8
WARSTWA_1
 10
1147.844807089173
 20
782.3051274243364
 30
0.0
  0
VERTEX
  5
2EC
  8
WARSTWA_1
 10
1148.013007405005
 20
782.4004039656622
 30
0.0
  0
VERTEX
  5
2ED
  8
WARSTWA_1
 10
1148.179386301254
 20
782.4961940847691
 30
0.0
  0
VERTEX
  5
2EE
  8
WARSTWA_1
 10
1148.343992338658
 20
782.5925118803109
 30
0.0
  0
VERTEX
  5
2EF
  8
WARSTWA_1
 10
1148.506874077956
 20
782.6893714509381
 30
0.0
  0
VERTEX
  5
2F0
  8
WARSTWA_1
 10
1148.668080079889
 20
782.7867868953065
 30
0.0
  0
VERTEX
  5
2F1
  8
WARSTWA_1
 10
1148.827658905194
 20
782.8847723120664
 30
0.0
  0
VERTEX
  5
2F2
  8
WARSTWA_1
 10
1148.985659114609
 20
782.98334179987
 30
0.0
  0
VERTEX
  5
2F3
  8
WARSTWA_1
 10
1149.142129268875
 20
783.0825094573731
 30
0.0
  0
VERTEX
  5
2F4
  8
WARSTWA_1
 10
1149.297117928731
 20
783.182289383228
 30
0.0
  0
VERTEX
  5
2F5
  8
WARSTWA_1
 10
1149.450673654914
 20
783.2826956760848
 30
0.0
  0
VERTEX
  5
2F6
  8
WARSTWA_1
 10
1149.602845008166
 20
783.3837424345995
 30
0.0
  0
VERTEX
  5
2F7
  8
WARSTWA_1
 10
1149.753680549223
 20
783.4854437574224
 30
0.0
  0
VERTEX
  5
2F8
  8
WARSTWA_1
 10
1149.903228838827
 20
783.5878137432094
 30
0.0
  0
VERTEX
  5
2F9
  8
WARSTWA_1
 10
1150.051538437715
 20
783.6908664906107
 30
0.0
  0
VERTEX
  5
2FA
  8
WARSTWA_1
 10
1150.344635806299
 20
783.8990766648724
 30
0.0
  0
VERTEX
  5
2FB
  8
WARSTWA_1
 10
1150.633361140891
 20
784.1101870694249
 30
0.0
  0
VERTEX
  5
2FC
  8
WARSTWA_1
 10
1150.9181029274
 20
784.3243104934984
 30
0.0
  0
VERTEX
  5
2FD
  8
WARSTWA_1
 10
1151.199249651739
 20
784.5415597263102
 30
0.0
  0
VERTEX
  5
2FE
  8
WARSTWA_1
 10
1151.47718979982
 20
784.762047557085
 30
0.0
  0
VERTEX
  5
2FF
  8
WARSTWA_1
 10
1151.752311857557
 20
784.9858867750474
 30
0.0
  0
VERTEX
  5
300
  8
WARSTWA_1
 10
1152.02500431086
 20
785.2131901694186
 30
0.0
  0
VERTEX
  5
301
  8
WARSTWA_1
 10
1152.295655645641
 20
785.444070529423
 30
0.0
  0
VERTEX
  5
302
  8
WARSTWA_1
 10
1152.564654347814
 20
785.6786406442782
 30
0.0
  0
VERTEX
  5
303
  8
WARSTWA_1
 10
1152.83238890329
 20
785.9170133032142
 30
0.0
  0
VERTEX
  5
304
  8
WARSTWA_1
 10
1153.099247797982
 20
786.1593012954465
 30
0.0
  0
VERTEX
  5
305
  8
WARSTWA_1
 10
1153.3656195178
 20
786.4056174102036
 30
0.0
  0
VERTEX
  5
306
  8
WARSTWA_1
 10
1153.631892548658
 20
786.6560744367064
 30
0.0
  0
VERTEX
  5
307
  8
WARSTWA_1
 10
1153.898455376467
 20
786.9107851641741
 30
0.0
  0
VERTEX
  5
308
  8
WARSTWA_1
 10
1154.165696487139
 20
787.1698623818386
 30
0.0
  0
VERTEX
  5
309
  8
WARSTWA_1
 10
1154.434004366588
 20
787.4334188789119
 30
0.0
  0
VERTEX
  5
30A
  8
WARSTWA_1
 10
1154.703767500725
 20
787.7015674446241
 30
0.0
  0
VERTEX
  5
30B
  8
WARSTWA_1
 10
1154.975374375461
 20
787.9744208681961
 30
0.0
  0
VERTEX
  5
30C
  8
WARSTWA_1
 10
1155.24921347671
 20
788.2520919388492
 30
0.0
  0
VERTEX
  5
30D
  8
WARSTWA_1
 10
1155.387091514123
 20
788.3927693384642
 30
0.0
  0
VERTEX
  5
30E
  8
WARSTWA_1
 10
1155.525673290382
 20
788.5346934458078
 30
0.0
  0
VERTEX
  5
30F
  8
WARSTWA_1
 10
1155.665007366225
 20
788.6778783595339
 30
0.0
  0
VERTEX
  5
310
  8
WARSTWA_1
 10
1155.805142302391
 20
788.8223381782966
 30
0.0
  0
VERTEX
  5
311
  8
WARSTWA_1
 10
1155.94612665962
 20
788.9680870007426
 30
0.0
  0
VERTEX
  5
312
  8
WARSTWA_1
 10
1156.088008998649
 20
789.1151389255313
 30
0.0
  0
VERTEX
  5
313
  8
WARSTWA_1
 10
1156.230837880219
 20
789.263508051313
 30
0.0
  0
VERTEX
  5
314
  8
WARSTWA_1
 10
1156.374661865068
 20
789.4132084767418
 30
0.0
  0
VERTEX
  5
315
  8
WARSTWA_1
 10
1156.519529513935
 20
789.5642543004681
 30
0.0
  0
VERTEX
  5
316
  8
WARSTWA_1
 10
1156.665489387558
 20
789.7166596211475
 30
0.0
  0
VERTEX
  5
317
  8
WARSTWA_1
 10
1156.812590046678
 20
789.8704385374342
 30
0.0
  0
VERTEX
  5
318
  8
WARSTWA_1
 10
1156.960880052034
 20
790.0256051479748
 30
0.0
  0
VERTEX
  5
319
  8
WARSTWA_1
 10
1157.110407964364
 20
790.182173551427
 30
0.0
  0
VERTEX
  5
31A
  8
WARSTWA_1
 10
1157.21638227085
 20
790.2927890291433
 30
0.0
 42
-0.0074634938539705
  0
VERTEX
  5
31B
  8
WARSTWA_1
 10
1158.033841710266
 20
782.5020757537138
 30
0.0
 42
-0.0108583074492746
  0
VERTEX
  5
31C
  8
WARSTWA_1
 10
1159.257182077761
 20
764.5133612584971
 30
0.0
 42
-0.0095961662039576
  0
VERTEX
  5
31D
  8
WARSTWA_1
 10
1159.772470496126
 20
745.4289562562565
 30
0.0
 42
-0.013990716853746
  0
VERTEX
  5
31E
  8
WARSTWA_1
 10
1158.951747516345
 20
704.7591443338999
 30
0.0
 42
-0.0128603281743974
  0
VERTEX
  5
31F
  8
WARSTWA_1
 10
1158.357271969253
 20
696.7268797840131
 30
0.0
 42
-0.033387776586585
  0
VERTEX
  5
320
  8
WARSTWA_1
 10
1156.260544923653
 20
684.2387615386226
 30
0.0
 42
-0.0054717533981794
  0
VERTEX
  5
321
  8
WARSTWA_1
 10
1155.218315470914
 20
680.0531572298348
 30
0.0
 42
0.0134738126822369
  0
VERTEX
  5
322
  8
WARSTWA_1
 10
1154.243197145231
 20
675.8514111745837
 30
0.0
 42
0.0292308085407592
  0
VERTEX
  5
323
  8
WARSTWA_1
 10
1153.294407339645
 20
669.2452664273212
 30
0.0
 42
0.0180216054506306
  0
VERTEX
  5
324
  8
WARSTWA_1
 10
1153.023731455333
 20
663.6295647449836
 30
0.0
 42
0.0146723070065364
  0
VERTEX
  5
325
  8
WARSTWA_1
 10
1153.132599031769
 20
657.3077588033514
 30
0.0
 42
0.0065310547087213
  0
VERTEX
  5
326
  8
WARSTWA_1
 10
1153.527025641096
 20
650.7003332294764
 30
0.0
 42
-0.0061341093481811
  0
VERTEX
  5
327
  8
WARSTWA_1
 10
1153.973390291638
 20
643.3213283584926
 30
0.0
 42
-0.0042963678962037
  0
VERTEX
  5
328
  8
WARSTWA_1
 10
1154.39077887967
 20
632.7752064674544
 30
0.0
 42
-0.0026364742483361
  0
VERTEX
  5
329
  8
WARSTWA_1
 10
1154.816470322691
 20
616.2092985432237
 30
0.0
 42
0.0023496492633713
  0
VERTEX
  5
32A
  8
WARSTWA_1
 10
1155.232658722741
 20
599.6431491483156
 30
0.0
 42
0.0035299394643527
  0
VERTEX
  5
32B
  8
WARSTWA_1
 10
1155.861257100528
 20
582.60491611047
 30
0.0
 42
0.0073386340390646
  0
VERTEX
  5
32C
  8
WARSTWA_1
 10
1156.863755982346
 20
565.520967057729
 30
0.0
 42
0.0105009387870171
  0
VERTEX
  5
32D
  8
WARSTWA_1
 10
1158.652094123956
 20
546.6111783491699
 30
0.0
 42
0.0136082967822319
  0
VERTEX
  5
32E
  8
WARSTWA_1
 10
1160.73391954518
 20
532.101688644497
 30
0.0
 42
0.0150817342602876
  0
VERTEX
  5
32F
  8
WARSTWA_1
 10
1163.333324446748
 20
519.2707616292589
 30
0.0
 42
-0.0000176042220326
  0
VERTEX
  5
330
  8
WARSTWA_1
 10
1172.075589782547
 20
482.905046781044
 30
0.0
 42
0.0000193870979203
  0
VERTEX
  5
331
  8
WARSTWA_1
 10
1121.0646332152
 20
475.2687866307914
 30
0.0
 42
-0.0000193909709832
  0
VERTEX
  5
332
  8
WARSTWA_1
 10
1069.824409043593
 20
467.3109279017727
 30
0.0
 42
0.0130746650866254
  0
VERTEX
  5
333
  8
WARSTWA_1
 10
1069.823488003247
 20
467.4335744740557
 30
0.0
 42
0.0149900519530756
  0
VERTEX
  5
334
  8
WARSTWA_1
 10
1066.519242139589
 20
504.1371660168144
 30
0.0
 42
0.0094778992953426
  0
VERTEX
  5
335
  8
WARSTWA_1
 10
1064.010521825219
 20
522.1062897818895
 30
0.0
 42
0.0103359247480494
  0
VERTEX
  5
336
  8
WARSTWA_1
 10
1061.175995280909
 20
537.8311463674968
 30
0.0
 42
0.0135860575377142
  0
VERTEX
  5
337
  8
WARSTWA_1
 10
1058.449701984554
 20
549.6783197381749
 30
0.0
 42
0.0123168376439217
  0
VERTEX
  5
338
  8
WARSTWA_1
 10
1056.239337934197
 20
557.4237616700163
 30
0.0
 42
0.002979685242674
  0
VERTEX
  5
339
  8
WARSTWA_1
 10
1054.366857248396
 20
563.2980055858291
 30
0.0
 42
0.0054715537562437
  0
VERTEX
  5
33A
  8
WARSTWA_1
 10
1049.783880203238
 20
576.8778578309989
 30
0.0
 42
-0.0031870753113733
  0
VERTEX
  5
33B
  8
WARSTWA_1
 10
1047.282737980722
 20
584.1787424441875
 30
0.0
 42
-0.0090398632525019
  0
VERTEX
  5
33C
  8
WARSTWA_1
 10
1045.330433517549
 20
590.3671222438816
 30
0.0
 42
-0.0248920435852026
  0
VERTEX
  5
33D
  8
WARSTWA_1
 10
1044.039959705836
 20
595.692474710185
 30
0.0
 42
-0.0280079107049711
  0
VERTEX
  5
33E
  8
WARSTWA_1
 10
1043.416491650021
 20
600.3893841123181
 30
0.0
 42
-0.0267012861035278
  0
VERTEX
  5
33F
  8
WARSTWA_1
 10
1043.304299698598
 20
605.3577296906017
 30
0.0
 42
-0.0193272274202782
  0
VERTEX
  5
340
  8
WARSTWA_1
 10
1043.628757603968
 20
610.0212266960161
 30
0.0
 42
-0.0126973457511861
  0
VERTEX
  5
341
  8
WARSTWA_1
 10
1044.575716887653
 20
617.0720983343228
 30
0.0
 42
-0.0084197514306925
  0
VERTEX
  5
342
  8
WARSTWA_1
 10
1046.164293260939
 20
626.0183372729155
 30
0.0
 42
-0.0017544396324777
  0
VERTEX
  5
343
  8
WARSTWA_1
 10
1048.95268544335
 20
640.0559089126702
 30
0.0
 42
-0.008178098814808
  0
VERTEX
  5
344
  8
WARSTWA_1
 10
1050.416825002971
 20
646.7301760570422
 30
0.0
 42
-0.0075810298276183
  0
VERTEX
  5
345
  8
WARSTWA_1
 10
1052.222362973581
 20
653.8766817870485
 30
0.0
 42
-0.0106582120235906
  0
VERTEX
  5
346
  8
WARSTWA_1
 10
1056.173095673576
 20
667.4144464863248
 30
0.0
 42
-0.0082817920450803
  0
VERTEX
  5
347
  8
WARSTWA_1
 10
1061.913347160799
 20
684.6309906350937
 30
0.0
 42
-0.0083430309592374
  0
VERTEX
  5
348
  8
WARSTWA_1
 10
1069.559364706612
 20
705.2519893319438
 30
0.0
 42
-0.0126784806654807
  0
VERTEX
  5
349
  8
WARSTWA_1
 10
1087.243653272992
 20
747.4181214255634
 30
0.0
 42
-0.0013488481421549
  0
VERTEX
  5
34A
  8
WARSTWA_1
 10
1089.271988985294
 20
751.8978115678028
 30
0.0
  0
SEQEND
  5
5CF
  8
WARSTWA_1
  0
POLYLINE
  5
75
  8
WARSTWA_1
 66
     1
 10
0.0
 20
0.0
 30
0.0
 70
     1
  0
VERTEX
  5
34B
  8
WARSTWA_1
 10
1221.517851679417
 20
480.1888008249188
 30
0.0
 42
-0.0139450722295791
  0
VERTEX
  5
34C
  8
WARSTWA_1
 10
1223.89432524209
 20
480.9710878119121
 30
0.0
 42
-0.0295514371908065
  0
VERTEX
  5
34D
  8
WARSTWA_1
 10
1229.783468943744
 20
482.3563718904047
 30
0.0
 42
-0.0235574464501487
  0
VERTEX
  5
34E
  8
WARSTWA_1
 10
1237.311234259118
 20
483.3010123330905
 30
0.0
 42
-0.0147656145402647
  0
VERTEX
  5
34F
  8
WARSTWA_1
 10
1244.965255077035
 20
483.6702198100351
 30
0.0
 42
-0.002657438095651
  0
VERTEX
  5
350
  8
WARSTWA_1
 10
1251.396628931099
 20
483.756120767327
 30
0.0
 42
0.0010716371844372
  0
VERTEX
  5
351
  8
WARSTWA_1
 10
1258.440823868786
 20
483.8278624860322
 30
0.0
 42
0.0121935585482935
  0
VERTEX
  5
352
  8
WARSTWA_1
 10
1265.624007349811
 20
484.0916997393223
 30
0.0
 42
0.0172100418252545
  0
VERTEX
  5
353
  8
WARSTWA_1
 10
1272.658824373307
 20
484.7656878184193
 30
0.0
 42
0.0320838440667339
  0
VERTEX
  5
354
  8
WARSTWA_1
 10
1280.139472890172
 20
486.2360267598496
 30
0.0
 42
0.0337806267631697
  0
VERTEX
  5
355
  8
WARSTWA_1
 10
1286.442668274104
 20
488.3652069369702
 30
0.0
 42
0.0707341106156673
  0
VERTEX
  5
356
  8
WARSTWA_1
 10
1296.414336473032
 20
494.268592732943
 30
0.0
 42
0.0290507574264107
  0
VERTEX
  5
357
  8
WARSTWA_1
 10
1294.427333898348
 20
497.2884385891779
 30
0.0
 42
0.0068182597440812
  0
VERTEX
  5
358
  8
WARSTWA_1
 10
1292.696624836555
 20
499.585119682596
 30
0.0
 42
-0.004139241102448
  0
VERTEX
  5
359
  8
WARSTWA_1
 10
1290.560874164205
 20
502.3879267385032
 30
0.0
 42
-0.0168211061134872
  0
VERTEX
  5
35A
  8
WARSTWA_1
 10
1287.911040761774
 20
506.185546407346
 30
0.0
 42
-0.0053427296765191
  0
VERTEX
  5
35B
  8
WARSTWA_1
 10
1287.175981278469
 20
507.3453240007938
 30
0.0
 42
0.2188825849909337
  0
VERTEX
  5
35C
  8
WARSTWA_1
 10
1286.244979045901
 20
507.962787100866
 30
0.0
 42
0.1042655258327273
  0
VERTEX
  5
35D
  8
WARSTWA_1
 10
1285.423323764539
 20
507.9190887626252
 30
0.0
 42
0.0557870260371912
  0
VERTEX
  5
35E
  8
WARSTWA_1
 10
1284.001873720613
 20
507.3638781065264
 30
0.0
 42
0.0418707000553571
  0
VERTEX
  5
35F
  8
WARSTWA_1
 10
1282.124483764112
 20
506.1670804319589
 30
0.0
 42
0.0220502821127132
  0
VERTEX
  5
360
  8
WARSTWA_1
 10
1278.882342183086
 20
503.4621589122589
 30
0.0
 42
0.0068919014704618
  0
VERTEX
  5
361
  8
WARSTWA_1
 10
1277.297894819381
 20
501.9766361179736
 30
0.0
 42
-0.0303478382087079
  0
VERTEX
  5
362
  8
WARSTWA_1
 10
1276.88471862411
 20
501.624154422373
 30
0.0
 42
-0.0221983427054108
  0
VERTEX
  5
363
  8
WARSTWA_1
 10
1272.09217794613
 20
498.3367673283996
 30
0.0
 42
-0.0231138905271142
  0
VERTEX
  5
364
  8
WARSTWA_1
 10
1267.222473585476
 20
495.608908760344
 30
0.0
 42
-0.0474061124431355
  0
VERTEX
  5
365
  8
WARSTWA_1
 10
1256.907649657679
 20
491.61224654399
 30
0.0
 42
-0.0195931047999831
  0
VERTEX
  5
366
  8
WARSTWA_1
 10
1250.284535813549
 20
490.0213765050875
 30
0.0
 42
-0.008538010223357
  0
VERTEX
  5
367
  8
WARSTWA_1
 10
1244.914002880058
 20
489.0470046459315
 30
0.0
 42
0.0079062622580312
  0
VERTEX
  5
368
  8
WARSTWA_1
 10
1239.542243201516
 20
488.0794187501987
 30
0.0
 42
0.0178654642794751
  0
VERTEX
  5
369
  8
WARSTWA_1
 10
1234.390264049658
 20
486.8744597007134
 30
0.0
 42
0.0367956740932343
  0
VERTEX
  5
36A
  8
WARSTWA_1
 10
1229.350278119491
 20
485.0970829305433
 30
0.0
 42
0.0484573251709944
  0
VERTEX
  5
36B
  8
WARSTWA_1
 10
1224.08452461466
 20
482.1555407162659
 30
0.0
  0
VERTEX
  5
36C
  8
WARSTWA_1
 10
1223.425445049175
 20
481.6868400830476
 30
0.0
  0
VERTEX
  5
36D
  8
WARSTWA_1
 10
1222.77779299399
 20
481.202674259282
 30
0.0
  0
VERTEX
  5
36E
  8
WARSTWA_1
 10
1222.14183851533
 20
480.7032566911715
 30
0.0
  0
SEQEND
  5
5D0
  8
WARSTWA_1
  0
POLYLINE
  5
76
  8
WARSTWA_1
 66
     1
 10
0.0
 20
0.0
 30
0.0
 70
     1
  0
VERTEX
  5
36F
  8
WARSTWA_1
 10
1208.294892769259
 20
412.1398730694596
 30
0.0
 42
0.0157853367853135
  0
VERTEX
  5
370
  8
WARSTWA_1
 10
1208.676821858321
 20
412.365895624715
 30
0.0
 42
-0.0076102170403253
  0
VERTEX
  5
371
  8
WARSTWA_1
 10
1209.055005080298
 20
412.5981314427349
 30
0.0
 42
-0.0070013091417061
  0
VERTEX
  5
372
  8
WARSTWA_1
 10
1210.603358829554
 20
413.4877209002116
 30
0.0
 42
-0.0068821852936122
  0
VERTEX
  5
373
  8
WARSTWA_1
 10
1212.203028385444
 20
414.348627042134
 30
0.0
 42
-0.0615403231063781
  0
VERTEX
  5
374
  8
WARSTWA_1
 10
1227.886960027114
 20
420.1990063614746
 30
0.0
 42
-0.0355378743111737
  0
VERTEX
  5
375
  8
WARSTWA_1
 10
1236.460130574981
 20
421.6094695633251
 30
0.0
 42
-0.045832522160092
  0
VERTEX
  5
376
  8
WARSTWA_1
 10
1246.437212563779
 20
421.6135911233612
 30
0.0
 42
-0.0516288228250836
  0
VERTEX
  5
377
  8
WARSTWA_1
 10
1255.132327099485
 20
419.9020572039549
 30
0.0
 42
-0.0224381296333506
  0
VERTEX
  5
378
  8
WARSTWA_1
 10
1258.346223103466
 20
418.7565388260439
 30
0.0
 42
-0.0187560751248624
  0
VERTEX
  5
379
  8
WARSTWA_1
 10
1264.472528333062
 20
415.9856096213748
 30
0.0
 42
-0.0234179775615805
  0
VERTEX
  5
37A
  8
WARSTWA_1
 10
1268.460372730858
 20
413.759682214677
 30
0.0
 42
-0.0496177262446986
  0
VERTEX
  5
37B
  8
WARSTWA_1
 10
1272.052700660711
 20
410.9998610780053
 30
0.0
 42
-0.0903669458429315
  0
VERTEX
  5
37C
  8
WARSTWA_1
 10
1276.130550027948
 20
405.4805521356527
 30
0.0
 42
-0.0407152903920816
  0
VERTEX
  5
37D
  8
WARSTWA_1
 10
1277.616011892394
 20
401.7032891465201
 30
0.0
 42
0.0059547433824168
  0
VERTEX
  5
37E
  8
WARSTWA_1
 10
1277.620728233454
 20
401.7075137911047
 30
0.0
 42
0.0081526337060907
  0
VERTEX
  5
37F
  8
WARSTWA_1
 10
1278.583558225298
 20
402.6274945909527
 30
0.0
 42
0.0080680738100246
  0
VERTEX
  5
380
  8
WARSTWA_1
 10
1281.132527471217
 20
405.2263297780823
 30
0.0
 42
0.0384966842621354
  0
VERTEX
  5
381
  8
WARSTWA_1
 10
1290.283598424091
 20
416.4821950662783
 30
0.0
 42
0.0424071678125464
  0
VERTEX
  5
382
  8
WARSTWA_1
 10
1296.839261556609
 20
427.907997281392
 30
0.0
 42
0.0453930636584072
  0
VERTEX
  5
383
  8
WARSTWA_1
 10
1301.137354158109
 20
439.852443720001
 30
0.0
 42
0.0505223002388772
  0
VERTEX
  5
384
  8
WARSTWA_1
 10
1302.884691706341
 20
451.1289234583487
 30
0.0
 42
0.0487697716444673
  0
VERTEX
  5
385
  8
WARSTWA_1
 10
1302.436651375529
 20
461.1478687319718
 30
0.0
 42
0.1010149594558015
  0
VERTEX
  5
386
  8
WARSTWA_1
 10
1296.529486215679
 20
477.6631682435759
 30
0.0
 42
-0.0209059323609424
  0
VERTEX
  5
387
  8
WARSTWA_1
 10
1296.445385493574
 20
477.8160074373677
 30
0.0
  0
VERTEX
  5
388
  8
WARSTWA_1
 10
1296.414336473032
 20
477.8471263541373
 30
0.0
 42
-0.0707341106156673
  0
VERTEX
  5
389
  8
WARSTWA_1
 10
1286.442668274104
 20
471.9437405581646
 30
0.0
 42
-0.0337806267631697
  0
VERTEX
  5
38A
  8
WARSTWA_1
 10
1280.139472890172
 20
469.814560381044
 30
0.0
 42
-0.0320838440667339
  0
VERTEX
  5
38B
  8
WARSTWA_1
 10
1272.658824373307
 20
468.3442214396136
 30
0.0
 42
-0.0172100418252545
  0
VERTEX
  5
38C
  8
WARSTWA_1
 10
1265.624007349811
 20
467.6702333605167
 30
0.0
 42
-0.0121935585482935
  0
VERTEX
  5
38D
  8
WARSTWA_1
 10
1258.440823868786
 20
467.4063961072266
 30
0.0
 42
-0.0010716371844372
  0
VERTEX
  5
38E
  8
WARSTWA_1
 10
1251.396628931099
 20
467.3346543885214
 30
0.0
 42
0.002657438095651
  0
VERTEX
  5
38F
  8
WARSTWA_1
 10
1244.965255077035
 20
467.2487534312295
 30
0.0
 42
0.0147656145402647
  0
VERTEX
  5
390
  8
WARSTWA_1
 10
1237.311234259118
 20
466.8795459542848
 30
0.0
 42
0.0235574464501487
  0
VERTEX
  5
391
  8
WARSTWA_1
 10
1229.783468943744
 20
465.934905511599
 30
0.0
 42
0.0295514371908065
  0
VERTEX
  5
392
  8
WARSTWA_1
 10
1223.89432524209
 20
464.5496214331065
 30
0.0
 42
0.0139450722295791
  0
VERTEX
  5
393
  8
WARSTWA_1
 10
1221.517851679417
 20
463.7673344461132
 30
0.0
 42
0.0120813738125183
  0
VERTEX
  5
394
  8
WARSTWA_1
 10
1219.4969200209
 20
462.9833899731291
 30
0.0
 42
-0.0563572967723093
  0
VERTEX
  5
395
  8
WARSTWA_1
 10
1218.375479414107
 20
462.6589508515349
 30
0.0
 42
-0.0482766202005293
  0
VERTEX
  5
396
  8
WARSTWA_1
 10
1216.598181546218
 20
462.5297936727966
 30
0.0
 42
-0.0283940617876225
  0
VERTEX
  5
397
  8
WARSTWA_1
 10
1213.58284152031
 20
462.7736861103726
 30
0.0
 42
-0.0284924354932953
  0
VERTEX
  5
398
  8
WARSTWA_1
 10
1209.514945582576
 20
463.5748132875167
 30
0.0
 42
-0.0215913241225774
  0
VERTEX
  5
399
  8
WARSTWA_1
 10
1207.761905991751
 20
464.1067291219456
 30
0.0
 42
0.0058923660018412
  0
VERTEX
  5
39A
  8
WARSTWA_1
 10
1201.284923340336
 20
466.2962567518828
 30
0.0
 42
0.0199637119299695
  0
VERTEX
  5
39B
  8
WARSTWA_1
 10
1192.036308125957
 20
468.8985585482401
 30
0.0
 42
0.0267532896403839
  0
VERTEX
  5
39C
  8
WARSTWA_1
 10
1180.698470032094
 20
470.9718285902957
 30
0.0
 42
0.0067836619671035
  0
VERTEX
  5
39D
  8
WARSTWA_1
 10
1172.075589782547
 20
471.9574025285069
 30
0.0
 42
0.0000193870979203
  0
VERTEX
  5
39E
  8
WARSTWA_1
 10
1121.0646332152
 20
464.3211423782543
 30
0.0
 42
-0.0000193909709832
  0
VERTEX
  5
39F
  8
WARSTWA_1
 10
1069.824409043593
 20
456.3632836492357
 30
0.0
  0
VERTEX
  5
3A0
  8
WARSTWA_1
 10
1069.823893437033
 20
456.3643735654964
 30
0.0
 42
-0.0013309075436565
  0
VERTEX
  5
3A1
  8
WARSTWA_1
 10
1070.159560005621
 20
455.649910370835
 30
0.0
 42
-0.0015765340421324
  0
VERTEX
  5
3A2
  8
WARSTWA_1
 10
1070.439417383878
 20
455.04512368932
 30
0.0
 42
-0.0307866418523223
  0
VERTEX
  5
3A3
  8
WARSTWA_1
 10
1075.137857902782
 20
442.8841956889107
 30
0.0
 42
-0.0351052830187226
  0
VERTEX
  5
3A4
  8
WARSTWA_1
 10
1077.822472780648
 20
431.7673087965882
 30
0.0
 42
-0.0353144496376109
  0
VERTEX
  5
3A5
  8
WARSTWA_1
 10
1078.825405955714
 20
421.3709293426837
 30
0.0
 42
-0.0722747891654897
  0
VERTEX
  5
3A6
  8
WARSTWA_1
 10
1076.645551455002
 20
403.0969557435014
 30
0.0
 42
-0.0352403692096421
  0
VERTEX
  5
3A7
  8
WARSTWA_1
 10
1073.655275315149
 20
394.4648683739001
 30
0.0
 42
-0.0142443106339269
  0
VERTEX
  5
3A8
  8
WARSTWA_1
 10
1071.273684145774
 20
389.3048508113093
 30
0.0
 42
0.0002013041818316
  0
VERTEX
  5
3A9
  8
WARSTWA_1
 10
1069.764102025404
 20
386.2617703737255
 30
0.0
 42
0.0227278469236742
  0
VERTEX
  5
3AA
  8
WARSTWA_1
 10
1069.264612242975
 20
385.1270023482352
 30
0.0
 42
-0.0085153476595966
  0
VERTEX
  5
3AB
  8
WARSTWA_1
 10
1069.139860200536
 20
384.8202268241043
 30
0.0
 42
-0.0038255934146922
  0
VERTEX
  5
3AC
  8
WARSTWA_1
 10
1068.845405455834
 20
384.1442341264315
 30
0.0
 42
0.0026207622723017
  0
VERTEX
  5
3AD
  8
WARSTWA_1
 10
1073.160262101615
 20
383.6100246850035
 30
0.0
 42
0.0058286033707112
  0
VERTEX
  5
3AE
  8
WARSTWA_1
 10
1077.316154624457
 20
383.1668960272937
 30
0.0
 42
0.0650558844858892
  0
VERTEX
  5
3AF
  8
WARSTWA_1
 10
1131.796811901444
 20
385.0941633615096
 30
0.0
 42
0.0650557372007708
  0
VERTEX
  5
3B0
  8
WARSTWA_1
 10
1183.953294896206
 20
400.9551532860619
 30
0.0
 42
0.0025311650320529
  0
VERTEX
  5
3B1
  8
WARSTWA_1
 10
1185.242674932885
 20
401.5468151451637
 30
0.0
 42
-0.0008437200757185
  0
VERTEX
  5
3B2
  8
WARSTWA_1
 10
1186.530055793188
 20
402.1428271792106
 30
0.0
 42
-0.0006764773982967
  0
VERTEX
  5
3B3
  8
WARSTWA_1
 10
1188.10809275416
 20
402.8039754568313
 30
0.0
 42
0.0020294346714457
  0
VERTEX
  5
3B4
  8
WARSTWA_1
 10
1189.684329988337
 20
403.4693892697053
 30
0.0
 42
0.0135319572616803
  0
VERTEX
  5
3B5
  8
WARSTWA_1
 10
1205.233371032833
 20
410.6113899432978
 30
0.0
  0
SEQEND
  5
5D1
  8
WARSTWA_1
  0
POLYLINE
  5
77
  8
WARSTWA_1
 66
     1
 10
0.0
 20
0.0
 30
0.0
 70
     1
  0
VERTEX
  5
3B6
  8
WARSTWA_1
 10
1208.294892769259
 20
395.7184066906539
 30
0.0
 42
0.0157853367853135
  0
VERTEX
  5
3B7
  8
WARSTWA_1
 10
1208.676821858321
 20
395.9444292459094
 30
0.0
 42
-0.0076102170403253
  0
VERTEX
  5
3B8
  8
WARSTWA_1
 10
1209.055005080298
 20
396.1766650639293
 30
0.0
 42
-0.0070013091417061
  0
VERTEX
  5
3B9
  8
WARSTWA_1
 10
1210.603358829554
 20
397.0662545214059
 30
0.0
 42
-0.0068821852936122
  0
VERTEX
  5
3BA
  8
WARSTWA_1
 10
1212.203028385444
 20
397.9271606633284
 30
0.0
 42
-0.0615403231063781
  0
VERTEX
  5
3BB
  8
WARSTWA_1
 10
1227.886960027114
 20
403.777539982669
 30
0.0
 42
-0.0355378743111737
  0
VERTEX
  5
3BC
  8
WARSTWA_1
 10
1236.460130574981
 20
405.1880031845195
 30
0.0
 42
-0.045832522160092
  0
VERTEX
  5
3BD
  8
WARSTWA_1
 10
1246.437212563779
 20
405.1921247445555
 30
0.0
 42
-0.0516288228250836
  0
VERTEX
  5
3BE
  8
WARSTWA_1
 10
1255.132327099485
 20
403.4805908251492
 30
0.0
 42
-0.0224381296333506
  0
VERTEX
  5
3BF
  8
WARSTWA_1
 10
1258.346223103466
 20
402.3350724472382
 30
0.0
 42
-0.0187560751248624
  0
VERTEX
  5
3C0
  8
WARSTWA_1
 10
1264.472528333062
 20
399.5641432425692
 30
0.0
 42
-0.0234179775615805
  0
VERTEX
  5
3C1
  8
WARSTWA_1
 10
1268.460372730858
 20
397.3382158358714
 30
0.0
 42
-0.0496177262446986
  0
VERTEX
  5
3C2
  8
WARSTWA_1
 10
1272.052700660711
 20
394.5783946991997
 30
0.0
 42
-0.0903669458429315
  0
VERTEX
  5
3C3
  8
WARSTWA_1
 10
1276.130550027948
 20
389.0590857568471
 30
0.0
 42
-0.0407152903920816
  0
VERTEX
  5
3C4
  8
WARSTWA_1
 10
1277.616011892394
 20
385.2818227677145
 30
0.0
 42
-0.0184163514706316
  0
VERTEX
  5
3C5
  8
WARSTWA_1
 10
1275.418131607868
 20
382.8744294259803
 30
0.0
 42
-0.0135517921138356
  0
VERTEX
  5
3C6
  8
WARSTWA_1
 10
1271.176230205645
 20
379.6289422128085
 30
0.0
 42
-0.0105487412307597
  0
VERTEX
  5
3C7
  8
WARSTWA_1
 10
1266.082559904568
 20
376.1074262357684
 30
0.0
 42
-0.013070889147628
  0
VERTEX
  5
3C8
  8
WARSTWA_1
 10
1261.84189489827
 20
373.4625412726965
 30
0.0
 42
-0.0205887862932436
  0
VERTEX
  5
3C9
  8
WARSTWA_1
 10
1259.015691117766
 20
371.9538109488379
 30
0.0
 42
-0.0475881465722628
  0
VERTEX
  5
3CA
  8
WARSTWA_1
 10
1258.150256230367
 20
371.633902410702
 30
0.0
 42
-0.0692905346473887
  0
VERTEX
  5
3CB
  8
WARSTWA_1
 10
1257.718343485588
 20
371.5815561719672
 30
0.0
 42
-0.4088118519558557
  0
VERTEX
  5
3CC
  8
WARSTWA_1
 10
1257.530481065614
 20
371.7726446571397
 30
0.0
 42
0.0364073947034552
  0
VERTEX
  5
3CD
  8
WARSTWA_1
 10
1257.205300925921
 20
376.1883773870071
 30
0.0
 42
0.0417268453380175
  0
VERTEX
  5
3CE
  8
WARSTWA_1
 10
1256.325346399351
 20
379.9517090480368
 30
0.0
 42
0.0538662382298653
  0
VERTEX
  5
3CF
  8
WARSTWA_1
 10
1254.48910056174
 20
384.0555215650389
 30
0.0
 42
0.0734426831770632
  0
VERTEX
  5
3D0
  8
WARSTWA_1
 10
1250.713449473272
 20
388.7727647209577
 30
0.0
 42
0.0536731983596543
  0
VERTEX
  5
3D1
  8
WARSTWA_1
 10
1246.777689965275
 20
391.7150556484315
 30
0.0
 42
0.04543246811385
  0
VERTEX
  5
3D2
  8
WARSTWA_1
 10
1241.539290643318
 20
394.2062204468985
 30
0.0
 42
0.0376500041304676
  0
VERTEX
  5
3D3
  8
WARSTWA_1
 10
1235.88933913527
 20
395.8176646068871
 30
0.0
 42
0.0308580665180579
  0
VERTEX
  5
3D4
  8
WARSTWA_1
 10
1228.795229694828
 20
396.8237176789426
 30
0.0
 42
0.0284464066327036
  0
VERTEX
  5
3D5
  8
WARSTWA_1
 10
1220.811990708542
 20
397.0017881551192
 30
0.0
 42
0.0326326815242854
  0
VERTEX
  5
3D6
  8
WARSTWA_1
 10
1208.642536862337
 20
395.7830090381067
 30
0.0
 42
-0.0105321791588302
  0
VERTEX
  5
3D7
  8
WARSTWA_1
 10
1208.46743059704
 20
395.7576186204602
 30
0.0
 42
0.05031089602656
  0
SEQEND
  5
5D2
  8
WARSTWA_1
  0
POLYLINE
  5
78
  8
WARSTWA_1
 66
     1
 10
0.0
 20
0.0
 30
0.0
 70
     1
  0
VERTEX
  5
3D8
  8
WARSTWA_1
 10
1381.677408738338
 20
183.5544302154552
 30
0.0
 42
0.001381464935872
  0
VERTEX
  5
3D9
  8
WARSTWA_1
 10
1377.985288891927
 20
178.4258154086488
 30
0.0
 42
0.0088816643252995
  0
VERTEX
  5
3DA
  8
WARSTWA_1
 10
1375.964906302046
 20
175.4942910708803
 30
0.0
 42
0.0217254310688192
  0
VERTEX
  5
3DB
  8
WARSTWA_1
 10
1373.171612957306
 20
170.8578328098012
 30
0.0
 42
0.0516012782776087
  0
VERTEX
  5
3DC
  8
WARSTWA_1
 10
1369.753876173929
 20
162.6756018771346
 30
0.0
 42
0.0270654094576889
  0
VERTEX
  5
3DD
  8
WARSTWA_1
 10
1368.984436942557
 20
159.510080302399
 30
0.0
 42
0.0386015187292764
  0
VERTEX
  5
3DE
  8
WARSTWA_1
 10
1368.531018954578
 20
155.29515160157
 30
0.0
 42
0.0069908735448499
  0
VERTEX
  5
3DF
  8
WARSTWA_1
 10
1368.522831189455
 20
154.7839696429027
 30
0.0
 42
-0.0013916567216338
  0
VERTEX
  5
3E0
  8
WARSTWA_1
 10
1368.512979114363
 20
152.73902890943
 30
0.0
 42
0.0308591831700558
  0
VERTEX
  5
3E1
  8
WARSTWA_1
 10
1368.527655560573
 20
152.4679985763935
 30
0.0
 42
0.3497264102885018
  0
VERTEX
  5
3E2
  8
WARSTWA_1
 10
1368.725248464937
 20
152.2716899871892
 30
0.0
 42
0.0918755167436845
  0
VERTEX
  5
3E3
  8
WARSTWA_1
 10
1368.897887364839
 20
152.2844818785406
 30
0.0
 42
0.0178819810567292
  0
VERTEX
  5
3E4
  8
WARSTWA_1
 10
1369.74256445185
 20
152.5392676354085
 30
0.0
 42
-0.0002088384459514
  0
VERTEX
  5
3E5
  8
WARSTWA_1
 10
1389.17401455578
 20
159.1581416403908
 30
0.0
 42
0.000805936602485
  0
VERTEX
  5
3E6
  8
WARSTWA_1
 10
1399.632840234059
 20
162.7346434088566
 30
0.0
 42
0.027620284644741
  0
VERTEX
  5
3E7
  8
WARSTWA_1
 10
1405.185172600323
 20
164.9931914195795
 30
0.0
 42
0.0226642788755475
  0
VERTEX
  5
3E8
  8
WARSTWA_1
 10
1411.639569924559
 20
168.4100683255663
 30
0.0
 42
0.0097245149145426
  0
VERTEX
  5
3E9
  8
WARSTWA_1
 10
1415.059369190738
 20
170.5145341026765
 30
0.0
 42
0.0079317064659056
  0
VERTEX
  5
3EA
  8
WARSTWA_1
 10
1419.158314655138
 20
173.2410013630404
 30
0.0
 42
0.027217271640727
  0
VERTEX
  5
3EB
  8
WARSTWA_1
 10
1421.567697702464
 20
175.1003224890324
 30
0.0
 42
0.0201502321219916
  0
VERTEX
  5
3EC
  8
WARSTWA_1
 10
1424.56898619616
 20
177.9073272079629
 30
0.0
 42
0.0080025880046312
  0
VERTEX
  5
3ED
  8
WARSTWA_1
 10
1427.184985116517
 20
180.6457656301617
 30
0.0
 42
-0.0023989977849376
  0
VERTEX
  5
3EE
  8
WARSTWA_1
 10
1429.770131141696
 20
183.4133485777862
 30
0.0
 42
0.0308000397377955
  0
VERTEX
  5
3EF
  8
WARSTWA_1
 10
1432.779103129383
 20
187.0255287791575
 30
0.0
 42
0.0153436321169504
  0
VERTEX
  5
3F0
  8
WARSTWA_1
 10
1435.372258733164
 20
190.7974485330311
 30
0.0
 42
0.0056953775955899
  0
VERTEX
  5
3F1
  8
WARSTWA_1
 10
1436.455504914639
 20
192.524466976526
 30
0.0
 42
-0.0069979754522722
  0
VERTEX
  5
3F2
  8
WARSTWA_1
 10
1440.806468121268
 20
199.4212248250322
 30
0.0
 42
-0.004154097725864
  0
VERTEX
  5
3F3
  8
WARSTWA_1
 10
1429.291423157192
 20
193.6487345102351
 30
0.0
 42
-0.0108289913531142
  0
VERTEX
  5
3F4
  8
WARSTWA_1
 10
1419.104377840918
 20
188.9183977877188
 30
0.0
 42
-0.0154486949438797
  0
VERTEX
  5
3F5
  8
WARSTWA_1
 10
1408.676293762917
 20
184.7270314865179
 30
0.0
 42
-0.0223485216057793
  0
VERTEX
  5
3F6
  8
WARSTWA_1
 10
1401.267615373175
 20
182.3816938867664
 30
0.0
 42
-0.0265376241653896
  0
VERTEX
  5
3F7
  8
WARSTWA_1
 10
1394.991008016165
 20
181.0515403355174
 30
0.0
 42
-0.0382217237312112
  0
VERTEX
  5
3F8
  8
WARSTWA_1
 10
1390.54699318973
 20
180.6981049049852
 30
0.0
 42
-0.0455129341012264
  0
VERTEX
  5
3F9
  8
WARSTWA_1
 10
1386.846356621138
 20
181.024625557859
 30
0.0
 42
-0.0614506208605035
  0
VERTEX
  5
3FA
  8
WARSTWA_1
 10
1384.214681020717
 20
181.8436481376108
 30
0.0
 42
-0.042219743436177
  0
VERTEX
  5
3FB
  8
WARSTWA_1
 10
1382.828681887439
 20
182.6168311841614
 30
0.0
 42
-0.0451404952306813
  0
SEQEND
  5
5D3
  8
WARSTWA_1
  0
POLYLINE
  5
79
  8
WARSTWA_1
 66
     1
 10
0.0
 20
0.0
 30
0.0
 70
     1
  0
VERTEX
  5
3FC
  8
WARSTWA_1
 10
1418.456294103044
 20
756.5456333832624
 30
0.0
 42
0.014856795076717
  0
VERTEX
  5
3FD
  8
WARSTWA_1
 10
1413.590298669401
 20
763.8282559702825
 30
0.0
 42
0.0235911333355469
  0
VERTEX
  5
3FE
  8
WARSTWA_1
 10
1402.626793966881
 20
777.7830983009477
 30
0.0
 42
0.0159529706302358
  0
VERTEX
  5
3FF
  8
WARSTWA_1
 10
1393.315660300746
 20
787.8786320897372
 30
0.0
 42
0.0141138270856286
  0
VERTEX
  5
400
  8
WARSTWA_1
 10
1382.125128092756
 20
798.6360336523609
 30
0.0
 42
0.02410072753488
  0
VERTEX
  5
401
  8
WARSTWA_1
 10
1380.07257352138
 20
800.3274889537079
 30
0.0
 42
0.040340896192028
  0
VERTEX
  5
402
  8
WARSTWA_1
 10
1378.725251302687
 20
801.1729770530452
 30
0.0
 42
0.0620015353523815
  0
VERTEX
  5
403
  8
WARSTWA_1
 10
1377.177078979903
 20
801.7485404953884
 30
0.0
 42
0.1212032044682287
  0
VERTEX
  5
404
  8
WARSTWA_1
 10
1375.447848054184
 20
801.7327370557447
 30
0.0
 42
0.0691651183104312
  0
VERTEX
  5
405
  8
WARSTWA_1
 10
1375.039459047399
 20
801.5655925078858
 30
0.0
 42
0.0789473644623132
  0
VERTEX
  5
406
  8
WARSTWA_1
 10
1374.73943630146
 20
801.3209059596371
 30
0.0
 42
0.0771187655267203
  0
VERTEX
  5
407
  8
WARSTWA_1
 10
1374.398082680597
 20
800.7943225605842
 30
0.0
 42
-0.0085761474290138
  0
VERTEX
  5
408
  8
WARSTWA_1
 10
1373.988697433632
 20
799.9210151612566
 30
0.0
 42
-0.0227122710259832
  0
VERTEX
  5
409
  8
WARSTWA_1
 10
1373.683636193479
 20
799.3638315028625
 30
0.0
 42
0.0805199467485588
  0
VERTEX
  5
40A
  8
WARSTWA_1
 10
1373.444687645375
 20
798.775257309762
 30
0.0
 42
0.0614498842972184
  0
VERTEX
  5
40B
  8
WARSTWA_1
 10
1373.342878228081
 20
797.7826582555375
 30
0.0
 42
0.0300022049560674
  0
VERTEX
  5
40C
  8
WARSTWA_1
 10
1373.506788656068
 20
795.7514298679085
 30
0.0
 42
0.0242744213753394
  0
VERTEX
  5
40D
  8
WARSTWA_1
 10
1374.101964189095
 20
792.6407220902873
 30
0.0
 42
0.0117842912565487
  0
VERTEX
  5
40E
  8
WARSTWA_1
 10
1375.785661289948
 20
786.3408000014348
 30
0.0
 42
0.0067186811724342
  0
VERTEX
  5
40F
  8
WARSTWA_1
 10
1378.232551424498
 20
778.3787486634844
 30
0.0
 42
-0.00435436122314
  0
VERTEX
  5
410
  8
WARSTWA_1
 10
1380.717062566287
 20
770.4283563948571
 30
0.0
 42
-0.008396911620897
  0
VERTEX
  5
411
  8
WARSTWA_1
 10
1382.159701884745
 20
765.3615659781675
 30
0.0
 42
-0.0333589283066557
  0
VERTEX
  5
412
  8
WARSTWA_1
 10
1383.504257949275
 20
758.5143313263885
 30
0.0
 42
-0.0222218249993879
  0
VERTEX
  5
413
  8
WARSTWA_1
 10
1383.950697507974
 20
753.13280755241
 30
0.0
 42
-0.0172277944252866
  0
VERTEX
  5
414
  8
WARSTWA_1
 10
1383.977716343587
 20
746.168855084608
 30
0.0
 42
-0.010096161581794
  0
VERTEX
  5
415
  8
WARSTWA_1
 10
1383.67977387375
 20
740.3047318036124
 30
0.0
 42
-0.0001807378257632
  0
VERTEX
  5
416
  8
WARSTWA_1
 10
1383.209872606034
 20
733.7270092702562
 30
0.0
 42
0.0044504578269744
  0
VERTEX
  5
417
  8
WARSTWA_1
 10
1382.777706428486
 20
726.8519896705843
 30
0.0
 42
0.0131359448015747
  0
VERTEX
  5
418
  8
WARSTWA_1
 10
1382.623430022243
 20
721.2650047012354
 30
0.0
 42
0.013591089531769
  0
VERTEX
  5
419
  8
WARSTWA_1
 10
1382.739459495383
 20
716.7764578997067
 30
0.0
 42
0.0201978661120732
  0
VERTEX
  5
41A
  8
WARSTWA_1
 10
1383.268560171284
 20
711.1289696789878
 30
0.0
 42
-0.0186891405207478
  0
VERTEX
  5
41B
  8
WARSTWA_1
 10
1384.054357104065
 20
703.0054793943186
 30
0.0
 42
-0.0092953188968322
  0
VERTEX
  5
41C
  8
WARSTWA_1
 10
1384.376202505247
 20
695.0566170742128
 30
0.0
 42
-0.0056200532846175
  0
VERTEX
  5
41D
  8
WARSTWA_1
 10
1384.467876224483
 20
686.4388020790855
 30
0.0
 42
0.0050808133373069
  0
VERTEX
  5
41E
  8
WARSTWA_1
 10
1384.550256018285
 20
677.820893230031
 30
0.0
 42
0.001833641576576
  0
VERTEX
  5
41F
  8
WARSTWA_1
 10
1384.572557466587
 20
676.8675111662678
 30
0.0
 42
-0.0006112132499791
  0
VERTEX
  5
420
  8
WARSTWA_1
 10
1384.597189724624
 20
675.9141864755326
 30
0.0
 42
-0.0074426045062783
  0
VERTEX
  5
421
  8
WARSTWA_1
 10
1384.661703552378
 20
676.1043136826684
 30
0.0
 42
0.0223311121733582
  0
VERTEX
  5
422
  8
WARSTWA_1
 10
1384.720529568782
 20
676.2962769308666
 30
0.0
 42
0.0179542061396112
  0
VERTEX
  5
423
  8
WARSTWA_1
 10
1384.798634255065
 20
676.6508779973458
 30
0.0
 42
-0.0015638491937908
  0
VERTEX
  5
424
  8
WARSTWA_1
 10
1385.064374132307
 20
678.0786052954169
 30
0.0
 42
0.0103840859400936
  0
VERTEX
  5
425
  8
WARSTWA_1
 10
1387.057085748381
 20
689.944581517808
 30
0.0
 42
0.0018856232687861
  0
VERTEX
  5
426
  8
WARSTWA_1
 10
1388.48122873181
 20
699.9173816732288
 30
0.0
 42
-0.0039089373751132
  0
VERTEX
  5
427
  8
WARSTWA_1
 10
1389.809135085258
 20
708.9548009038475
 30
0.0
 42
-0.0132594563298795
  0
VERTEX
  5
428
  8
WARSTWA_1
 10
1391.04016378416
 20
715.711177027402
 30
0.0
 42
-0.0213822736729083
  0
VERTEX
  5
429
  8
WARSTWA_1
 10
1392.939320526856
 20
723.164393852981
 30
0.0
 42
-0.038081340464601
  0
VERTEX
  5
42A
  8
WARSTWA_1
 10
1396.021244018289
 20
731.1485241018833
 30
0.0
 42
-0.0609434450371794
  0
VERTEX
  5
42B
  8
WARSTWA_1
 10
1403.012723896229
 20
742.1468398409336
 30
0.0
 42
-0.0269264972845135
  0
VERTEX
  5
42C
  8
WARSTWA_1
 10
1408.265404160664
 20
747.8784621434767
 30
0.0
 42
-0.01653247525543
  0
VERTEX
  5
42D
  8
WARSTWA_1
 10
1412.361955772334
 20
751.6345677043169
 30
0.0
 42
-0.0142038128881739
  0
VERTEX
  5
42E
  8
WARSTWA_1
 10
1417.389318728337
 20
755.7050215604555
 30
0.0
 42
0.0037720084837161
  0
VERTEX
  5
42F
  8
WARSTWA_1
 10
1417.776672539509
 20
756.0054884430643
 30
0.0
 42
0.0021300208654671
  0
SEQEND
  5
5D4
  8
WARSTWA_1
  0
POLYLINE
  5
7A
  8
WARSTWA_1
 66
     1
 10
0.0
 20
0.0
 30
0.0
 70
     1
  0
VERTEX
  5
430
  8
WARSTWA_1
 10
1437.021382218441
 20
742.3270063123375
 30
0.0
 42
-0.0058614349531365
  0
VERTEX
  5
431
  8
WARSTWA_1
 10
1435.720880346221
 20
741.3091450409805
 30
0.0
 42
0.0158662529743666
  0
VERTEX
  5
432
  8
WARSTWA_1
 10
1430.60157129465
 20
737.1346117191483
 30
0.0
 42
0.0226034657604241
  0
VERTEX
  5
433
  8
WARSTWA_1
 10
1424.907287220618
 20
731.7114144573682
 30
0.0
 42
0.0379709727517859
  0
VERTEX
  5
434
  8
WARSTWA_1
 10
1419.118463427663
 20
724.6785184795885
 30
0.0
 42
0.0554124235861116
  0
VERTEX
  5
435
  8
WARSTWA_1
 10
1413.450822300185
 20
714.3544620899618
 30
0.0
 42
0.026683556369412
  0
VERTEX
  5
436
  8
WARSTWA_1
 10
1411.219218726071
 20
708.0052302240588
 30
0.0
 42
0.0239342898658573
  0
VERTEX
  5
437
  8
WARSTWA_1
 10
1409.370311126973
 20
700.3430049646793
 30
0.0
 42
0.0100706615473063
  0
VERTEX
  5
438
  8
WARSTWA_1
 10
1407.934806903389
 20
691.9185009691978
 30
0.0
 42
0.0036638220133727
  0
VERTEX
  5
439
  8
WARSTWA_1
 10
1406.686484559965
 20
683.1432652283831
 30
0.0
 42
-0.004650136410988
  0
VERTEX
  5
43A
  8
WARSTWA_1
 10
1405.420854674278
 20
674.3705089926029
 30
0.0
 42
-0.0046491996583581
  0
VERTEX
  5
43B
  8
WARSTWA_1
 10
1404.390704057438
 20
668.062452438112
 30
0.0
 42
-0.0052789259055007
  0
VERTEX
  5
43C
  8
WARSTWA_1
 10
1403.37330868953
 20
662.5259617909019
 30
0.0
 42
0.0071156683338488
  0
VERTEX
  5
43D
  8
WARSTWA_1
 10
1403.33284884495
 20
662.3011435816973
 30
0.0
 42
-0.0222220851878089
  0
VERTEX
  5
43E
  8
WARSTWA_1
 10
1403.285617684174
 20
662.0776498599394
 30
0.0
 42
-0.0393177173703619
  0
VERTEX
  5
43F
  8
WARSTWA_1
 10
1403.200704871181
 20
661.8307933072521
 30
0.0
 42
0.0666174972271923
  0
VERTEX
  5
440
  8
WARSTWA_1
 10
1403.16227784001
 20
661.6955594048911
 30
0.0
  0
VERTEX
  5
441
  8
WARSTWA_1
 10
1403.185992323504
 20
660.7321459182099
 30
0.0
 42
0.0069677648646781
  0
VERTEX
  5
442
  8
WARSTWA_1
 10
1403.409439534497
 20
655.784562925222
 30
0.0
 42
-0.003032445860852
  0
VERTEX
  5
443
  8
WARSTWA_1
 10
1403.896714238518
 20
646.5997735217302
 30
0.0
 42
-0.0019182854004116
  0
VERTEX
  5
444
  8
WARSTWA_1
 10
1404.344526337021
 20
636.2164318032501
 30
0.0
 42
0.0037274855034078
  0
VERTEX
  5
445
  8
WARSTWA_1
 10
1404.829906198206
 20
625.8347784036873
 30
0.0
 42
0.0074632639709146
  0
VERTEX
  5
446
  8
WARSTWA_1
 10
1405.686081947439
 20
613.4642589630331
 30
0.0
 42
0.0154435731316539
  0
VERTEX
  5
447
  8
WARSTWA_1
 10
1407.117537973055
 20
601.0621319414208
 30
0.0
 42
0.0189024581330409
  0
VERTEX
  5
448
  8
WARSTWA_1
 10
1409.532423102478
 20
588.0570574355506
 30
0.0
 42
0.0107873142433823
  0
VERTEX
  5
449
  8
WARSTWA_1
 10
1412.361008302034
 20
576.6453964124307
 30
0.0
 42
0.0063496567650832
  0
VERTEX
  5
44A
  8
WARSTWA_1
 10
1414.616389380956
 20
568.7198977000579
 30
0.0
 42
0.004044467197282
  0
VERTEX
  5
44B
  8
WARSTWA_1
 10
1418.415035374437
 20
556.3537588000786
 30
0.0
 42
0.0009658836753789
  0
VERTEX
  5
44C
  8
WARSTWA_1
 10
1421.271709287962
 20
547.3756371072025
 30
0.0
 42
-0.0028513219680199
  0
VERTEX
  5
44D
  8
WARSTWA_1
 10
1424.094507716135
 20
538.386807149182
 30
0.0
 42
-0.0023005035387101
  0
VERTEX
  5
44E
  8
WARSTWA_1
 10
1425.638469215281
 20
533.2870234544856
 30
0.0
 42
-0.002544239827922
  0
VERTEX
  5
44F
  8
WARSTWA_1
 10
1426.989776761782
 20
528.6624794779368
 30
0.0
 42
0.0350767421543512
  0
VERTEX
  5
450
  8
WARSTWA_1
 10
1427.076424816353
 20
528.4246077043736
 30
0.0
 42
-0.0020793409422414
  0
VERTEX
  5
451
  8
WARSTWA_1
 10
1427.484805783873
 20
527.4984399629834
 30
0.0
 42
0.0036884867343099
  0
VERTEX
  5
452
  8
WARSTWA_1
 10
1431.037238265997
 20
519.511600093438
 30
0.0
 42
-0.0001601373704018
  0
VERTEX
  5
453
  8
WARSTWA_1
 10
1435.684548324971
 20
509.2586401453177
 30
0.0
 42
-0.0020447741230628
  0
VERTEX
  5
454
  8
WARSTWA_1
 10
1440.303283801497
 20
498.9480414601962
 30
0.0
 42
-0.0096218168670726
  0
VERTEX
  5
455
  8
WARSTWA_1
 10
1445.782370693855
 20
485.9097391033888
 30
0.0
 42
-0.0065198532724672
  0
VERTEX
  5
456
  8
WARSTWA_1
 10
1448.162649552312
 20
479.6907253829154
 30
0.0
 42
-0.0063350093940154
  0
VERTEX
  5
457
  8
WARSTWA_1
 10
1454.307296270386
 20
462.3107477258932
 30
0.0
 42
-0.0104418654061369
  0
VERTEX
  5
458
  8
WARSTWA_1
 10
1461.825722148009
 20
438.5355162388803
 30
0.0
 42
-0.01229343467157
  0
VERTEX
  5
459
  8
WARSTWA_1
 10
1467.28750206141
 20
418.0709243797414
 30
0.0
 42
-0.022854759246392
  0
VERTEX
  5
45A
  8
WARSTWA_1
 10
1468.013915011314
 20
414.3044383621126
 30
0.0
 42
-0.0311549015949261
  0
VERTEX
  5
45B
  8
WARSTWA_1
 10
1468.715326386899
 20
405.8250622544169
 30
0.0
 42
-0.0093768138343039
  0
VERTEX
  5
45C
  8
WARSTWA_1
 10
1468.718926276506
 20
403.407502440013
 30
0.0
 42
-0.0106562507515446
  0
VERTEX
  5
45D
  8
WARSTWA_1
 10
1468.636882438548
 20
401.2817313898863
 30
0.0
 42
0.008536588543619
  0
VERTEX
  5
45E
  8
WARSTWA_1
 10
1474.388870060961
 20
404.9295455506827
 30
0.0
 42
0.0015626471222081
  0
VERTEX
  5
45F
  8
WARSTWA_1
 10
1483.841051742575
 20
411.1951714137728
 30
0.0
 42
-0.0027933294642487
  0
VERTEX
  5
460
  8
WARSTWA_1
 10
1495.747849366291
 20
419.0457878984348
 30
0.0
 42
-0.0080926985267601
  0
VERTEX
  5
461
  8
WARSTWA_1
 10
1505.648610322762
 20
425.2688106184638
 30
0.0
 42
-0.0076731565978239
  0
VERTEX
  5
462
  8
WARSTWA_1
 10
1512.504263229582
 20
429.2820608985751
 30
0.0
 42
-0.0085779185693009
  0
VERTEX
  5
463
  8
WARSTWA_1
 10
1518.75032238061
 20
432.6708831905786
 30
0.0
 42
0.0047654071773818
  0
VERTEX
  5
464
  8
WARSTWA_1
 10
1523.4662371196
 20
435.1831689992532
 30
0.0
 42
-0.0028499460079982
  0
VERTEX
  5
465
  8
WARSTWA_1
 10
1532.206420288583
 20
439.8823560872376
 30
0.0
 42
-0.006498545875793
  0
VERTEX
  5
466
  8
WARSTWA_1
 10
1543.064662685133
 20
445.4611993027834
 30
0.0
 42
-0.0131310238667522
  0
VERTEX
  5
467
  8
WARSTWA_1
 10
1548.543342275542
 20
448.0094688148389
 30
0.0
 42
-0.0166749378263539
  0
VERTEX
  5
468
  8
WARSTWA_1
 10
1552.15807291859
 20
449.4354670923115
 30
0.0
 42
-0.037209465244645
  0
VERTEX
  5
469
  8
WARSTWA_1
 10
1553.839145609918
 20
449.897138874922
 30
0.0
 42
-0.0117266130128615
  0
VERTEX
  5
46A
  8
WARSTWA_1
 10
1554.124253012754
 20
449.9461337354322
 30
0.0
 42
-0.0117674867266101
  0
VERTEX
  5
46B
  8
WARSTWA_1
 10
1554.410350056544
 20
449.9815599386579
 30
0.0
 42
-0.0051911128228529
  0
VERTEX
  5
46C
  8
WARSTWA_1
 10
1553.50707251701
 20
450.2846963957531
 30
0.0
 42
-0.0270462224623462
  0
VERTEX
  5
46D
  8
WARSTWA_1
 10
1552.436833345133
 20
450.7224320269092
 30
0.0
 42
-0.0857856482566057
  0
VERTEX
  5
46E
  8
WARSTWA_1
 10
1549.07675484213
 20
453.0882948515145
 30
0.0
 42
-0.0324817703373677
  0
VERTEX
  5
46F
  8
WARSTWA_1
 10
1547.335806871234
 20
455.0683614609957
 30
0.0
 42
-0.0138337416919431
  0
VERTEX
  5
470
  8
WARSTWA_1
 10
1546.037978638442
 20
456.8535431736699
 30
0.0
 42
-0.0330258192989003
  0
VERTEX
  5
471
  8
WARSTWA_1
 10
1544.19872911521
 20
459.957490009409
 30
0.0
 42
-0.0365592701822445
  0
VERTEX
  5
472
  8
WARSTWA_1
 10
1542.232619921592
 20
464.6626259519506
 30
0.0
 42
-0.0166391948737748
  0
VERTEX
  5
473
  8
WARSTWA_1
 10
1540.730482159084
 20
469.7065064635103
 30
0.0
 42
-0.0047647646372505
  0
VERTEX
  5
474
  8
WARSTWA_1
 10
1540.281299065516
 20
471.4905970546872
 30
0.0
 42
0.0004135009673441
  0
VERTEX
  5
475
  8
WARSTWA_1
 10
1538.546750953214
 20
478.6422708168943
 30
0.0
 42
-0.0099990541616568
  0
VERTEX
  5
476
  8
WARSTWA_1
 10
1537.245552630991
 20
484.4948060189481
 30
0.0
 42
-0.0073522873032888
  0
VERTEX
  5
477
  8
WARSTWA_1
 10
1535.753216636017
 20
492.5104454222151
 30
0.0
 42
-0.002524180317268
  0
VERTEX
  5
478
  8
WARSTWA_1
 10
1534.465952792562
 20
500.2737947822
 30
0.0
 42
0.0056648649489053
  0
VERTEX
  5
479
  8
WARSTWA_1
 10
1533.129951057226
 20
508.0289054101036
 30
0.0
 42
0.0101236840533415
  0
VERTEX
  5
47A
  8
WARSTWA_1
 10
1531.41832424805
 20
516.3792864730722
 30
0.0
 42
0.0206521007105772
  0
VERTEX
  5
47B
  8
WARSTWA_1
 10
1529.16029536208
 20
524.7420695019941
 30
0.0
 42
0.0334631675921843
  0
VERTEX
  5
47C
  8
WARSTWA_1
 10
1524.767168861543
 20
536.0043638915681
 30
0.0
 42
0.0158686691859059
  0
VERTEX
  5
47D
  8
WARSTWA_1
 10
1521.612399604615
 20
542.2064106291514
 30
0.0
 42
0.0119051179250839
  0
VERTEX
  5
47E
  8
WARSTWA_1
 10
1518.173109794104
 20
548.1291739142032
 30
0.0
 42
0.0005570475251508
  0
VERTEX
  5
47F
  8
WARSTWA_1
 10
1514.374758401702
 20
554.3102403239741
 30
0.0
 42
-0.0058929797099451
  0
VERTEX
  5
480
  8
WARSTWA_1
 10
1510.445907109319
 20
560.8593355097443
 30
0.0
 42
-0.022884839062328
  0
VERTEX
  5
481
  8
WARSTWA_1
 10
1505.711230197889
 20
569.8918756093176
 30
0.0
 42
-0.0138998546547415
  0
VERTEX
  5
482
  8
WARSTWA_1
 10
1503.570461929175
 20
574.827556588634
 30
0.0
 42
-0.0131009590468981
  0
VERTEX
  5
483
  8
WARSTWA_1
 10
1501.585136595042
 20
580.1790544139462
 30
0.0
 42
0.0121084133721308
  0
VERTEX
  5
484
  8
WARSTWA_1
 10
1497.662682986891
 20
590.8168311520369
 30
0.0
 42
0.0173502801264474
  0
VERTEX
  5
485
  8
WARSTWA_1
 10
1494.49243196859
 20
598.0677881666984
 30
0.0
 42
0.0219310504474027
  0
VERTEX
  5
486
  8
WARSTWA_1
 10
1491.221261502712
 20
604.1898930763117
 30
0.0
 42
0.0311562726026057
  0
VERTEX
  5
487
  8
WARSTWA_1
 10
1488.47371320881
 20
608.2330400436972
 30
0.0
 42
0.0321949440739871
  0
VERTEX
  5
488
  8
WARSTWA_1
 10
1485.989714491993
 20
611.0450952967875
 30
0.0
 42
0.0349530235567434
  0
VERTEX
  5
489
  8
WARSTWA_1
 10
1483.375152506528
 20
613.3061398033337
 30
0.0
 42
0.0188422012537067
  0
VERTEX
  5
48A
  8
WARSTWA_1
 10
1481.459863096114
 20
614.6318692518205
 30
0.0
 42
-0.0068842638013012
  0
VERTEX
  5
48B
  8
WARSTWA_1
 10
1479.513423872357
 20
615.9114263800698
 30
0.0
 42
-0.0205182125076326
  0
VERTEX
  5
48C
  8
WARSTWA_1
 10
1477.775335113036
 20
617.1956681001727
 30
0.0
 42
-0.0521214866787777
  0
VERTEX
  5
48D
  8
WARSTWA_1
 10
1475.340062575354
 20
619.6121568455078
 30
0.0
 42
-0.040806139993473
  0
VERTEX
  5
48E
  8
WARSTWA_1
 10
1473.526888334093
 20
622.2423590311314
 30
0.0
 42
-0.0292946088055753
  0
VERTEX
  5
48F
  8
WARSTWA_1
 10
1471.539335359571
 20
626.219783281213
 30
0.0
 42
-0.0223162576917029
  0
VERTEX
  5
490
  8
WARSTWA_1
 10
1469.746062545819
 20
630.9808894394145
 30
0.0
 42
-0.0147094366226475
  0
VERTEX
  5
491
  8
WARSTWA_1
 10
1467.567821216485
 20
638.3835309548326
 30
0.0
 42
-0.012725064748312
  0
VERTEX
  5
492
  8
WARSTWA_1
 10
1465.19202872191
 20
648.4707479470904
 30
0.0
 42
-0.0080340962358599
  0
VERTEX
  5
493
  8
WARSTWA_1
 10
1462.095715346554
 20
664.588559268554
 30
0.0
 42
-0.005435090914324
  0
VERTEX
  5
494
  8
WARSTWA_1
 10
1459.459629052129
 20
680.6319165407233
 30
0.0
 42
0.0047320772218376
  0
VERTEX
  5
495
  8
WARSTWA_1
 10
1458.806247202836
 20
684.6436792655718
 30
0.0
 42
0.0267005284718289
  0
VERTEX
  5
496
  8
WARSTWA_1
 10
1454.633116339614
 20
702.9356265913267
 30
0.0
 42
0.0393389421701474
  0
VERTEX
  5
497
  8
WARSTWA_1
 10
1446.314420046502
 20
725.2847727160993
 30
0.0
 42
0.0208871986048838
  0
VERTEX
  5
498
  8
WARSTWA_1
 10
1440.626564109156
 20
736.2978214663963
 30
0.0
 42
0.0102070658809562
  0
SEQEND
  5
5D5
  8
WARSTWA_1
  0
POLYLINE
  5
7B
  8
WARSTWA_1
 66
     1
 10
0.0
 20
0.0
 30
0.0
 70
     1
  0
VERTEX
  5
499
  8
WARSTWA_1
 10
1541.423472137003
 20
340.3264989803573
 30
0.0
 42
-0.0125143765783322
  0
VERTEX
  5
49A
  8
WARSTWA_1
 10
1533.564188819692
 20
335.0787181850679
 30
0.0
 42
-0.0345999437737163
  0
VERTEX
  5
49B
  8
WARSTWA_1
 10
1520.849149969109
 20
328.2225013487763
 30
0.0
 42
-0.0281407601644969
  0
VERTEX
  5
49C
  8
WARSTWA_1
 10
1508.839880523887
 20
323.5771019873021
 30
0.0
 42
-0.0160433155424809
  0
VERTEX
  5
49D
  8
WARSTWA_1
 10
1497.835588406011
 20
320.4039460860617
 30
0.0
 42
-0.010667464982491
  0
VERTEX
  5
49E
  8
WARSTWA_1
 10
1486.834243672795
 20
317.8591060601801
 30
0.0
 42
-0.0003825483016885
  0
VERTEX
  5
49F
  8
WARSTWA_1
 10
1474.866807074678
 20
315.3680393501122
 30
0.0
 42
0.0009357064472551
  0
VERTEX
  5
4A0
  8
WARSTWA_1
 10
1469.674794585725
 20
314.2813082576823
 30
0.0
 42
0.0039036359942847
  0
VERTEX
  5
4A1
  8
WARSTWA_1
 10
1468.432824287539
 20
314.0087805434118
 30
0.0
 42
0.1311175484540327
  0
VERTEX
  5
4A2
  8
WARSTWA_1
 10
1464.592733347366
 20
311.9872623672181
 30
0.0
 42
0.0478848586373875
  0
VERTEX
  5
4A3
  8
WARSTWA_1
 10
1462.703917069921
 20
309.8757620970295
 30
0.0
 42
0.0308199863422187
  0
VERTEX
  5
4A4
  8
WARSTWA_1
 10
1461.298249465045
 20
307.6946115293918
 30
0.0
 42
0.0093539223824439
  0
VERTEX
  5
4A5
  8
WARSTWA_1
 10
1459.692942521212
 20
304.7004482253173
 30
0.0
 42
-0.0050126737324686
  0
VERTEX
  5
4A6
  8
WARSTWA_1
 10
1458.549002753451
 20
302.5215951348526
 30
0.0
 42
-0.0304998153149676
  0
VERTEX
  5
4A7
  8
WARSTWA_1
 10
1457.042971949449
 20
300.089648763836
 30
0.0
  0
VERTEX
  5
4A8
  8
WARSTWA_1
 10
1447.52676633097
 20
286.6308190297545
 30
0.0
 42
-0.0097384114142394
  0
VERTEX
  5
4A9
  8
WARSTWA_1
 10
1447.514410887228
 20
286.614047354838
 30
0.0
 42
-0.0158278089070071
  0
VERTEX
  5
4AA
  8
WARSTWA_1
 10
1447.50629021646
 20
286.604128663018
 30
0.0
  0
VERTEX
  5
4AB
  8
WARSTWA_1
 10
1447.497710158421
 20
286.6059470544428
 30
0.0
 42
0.1594461163676347
  0
VERTEX
  5
4AC
  8
WARSTWA_1
 10
1447.502508955291
 20
286.602290147606
 30
0.0
 42
-0.5071188169579735
  0
VERTEX
  5
4AD
  8
WARSTWA_1
 10
1447.504275831133
 20
286.596521302941
 30
0.0
 42
-0.0001568649205109
  0
VERTEX
  5
4AE
  8
WARSTWA_1
 10
1427.427454291129
 20
259.7300591073952
 30
0.0
 42
0.0007087977826865
  0
VERTEX
  5
4AF
  8
WARSTWA_1
 10
1422.415665592047
 20
253.0079063050702
 30
0.0
 42
0.0108929984286043
  0
VERTEX
  5
4B0
  8
WARSTWA_1
 10
1417.703588155629
 20
246.3718352005894
 30
0.0
 42
0.0015150706621293
  0
VERTEX
  5
4B1
  8
WARSTWA_1
 10
1413.628133417853
 20
240.3196186032669
 30
0.0
 42
-0.0015564080764119
  0
VERTEX
  5
4B2
  8
WARSTWA_1
 10
1409.957584288175
 20
234.8696759365459
 30
0.0
 42
-0.0086287689403127
  0
VERTEX
  5
4B3
  8
WARSTWA_1
 10
1405.450406088579
 20
228.4631411877849
 30
0.0
 42
0.0028033660624934
  0
VERTEX
  5
4B4
  8
WARSTWA_1
 10
1402.498255212734
 20
224.3691281852652
 30
0.0
 42
0.0056134094845898
  0
VERTEX
  5
4B5
  8
WARSTWA_1
 10
1399.532953146679
 20
220.1074608312588
 30
0.0
 42
0.0174365281214405
  0
VERTEX
  5
4B6
  8
WARSTWA_1
 10
1388.994650471637
 20
203.3660422533827
 30
0.0
 42
-0.0167159484840229
  0
VERTEX
  5
4B7
  8
WARSTWA_1
 10
1386.366106993575
 20
199.1768953483367
 30
0.0
 42
-0.0040260411816539
  0
VERTEX
  5
4B8
  8
WARSTWA_1
 10
1385.123989585822
 20
197.3684886972482
 30
0.0
 42
-0.0042053021339719
  0
VERTEX
  5
4B9
  8
WARSTWA_1
 10
1383.906478999368
 20
195.6569776609401
 30
0.0
 42
0.1066785305039783
  0
VERTEX
  5
4BA
  8
WARSTWA_1
 10
1386.990966537995
 20
193.718310778091
 30
0.0
 42
0.0573978184357937
  0
VERTEX
  5
4BB
  8
WARSTWA_1
 10
1390.266121766991
 20
192.9379530745643
 30
0.0
 42
0.0458397120401014
  0
VERTEX
  5
4BC
  8
WARSTWA_1
 10
1394.0255149287
 20
192.8340939541039
 30
0.0
 42
0.0319923434351968
  0
VERTEX
  5
4BD
  8
WARSTWA_1
 10
1399.36435263976
 20
193.5209973463749
 30
0.0
 42
0.0263430973012826
  0
VERTEX
  5
4BE
  8
WARSTWA_1
 10
1405.569594674554
 20
195.0697819005256
 30
0.0
 42
0.0183526343450032
  0
VERTEX
  5
4BF
  8
WARSTWA_1
 10
1414.239435258257
 20
198.0779343713272
 30
0.0
 42
0.0130745669250088
  0
VERTEX
  5
4C0
  8
WARSTWA_1
 10
1422.533295484488
 20
201.5534695553577
 30
0.0
 42
0.0091103597896241
  0
VERTEX
  5
4C1
  8
WARSTWA_1
 10
1434.202110687198
 20
207.0638552306533
 30
0.0
 42
0.0020317648247027
  0
VERTEX
  5
4C2
  8
WARSTWA_1
 10
1437.703178316513
 20
208.8136164591741
 30
0.0
 42
0.0013367785365683
  0
VERTEX
  5
4C3
  8
WARSTWA_1
 10
1443.006388239065
 20
211.5088549888474
 30
0.0
 42
-0.0325311699062046
  0
VERTEX
  5
4C4
  8
WARSTWA_1
 10
1443.021449950748
 20
211.5153626768778
 30
0.0
 42
0.0979842906632841
  0
VERTEX
  5
4C5
  8
WARSTWA_1
 10
1443.035538382177
 20
211.523772270339
 30
0.0
  0
VERTEX
  5
4C6
  8
WARSTWA_1
 10
1443.408742160446
 20
212.0973914930924
 30
0.0
 42
0.0043911415354001
  0
VERTEX
  5
4C7
  8
WARSTWA_1
 10
1451.878537430537
 20
225.4076236026008
 30
0.0
 42
-0.0017367647670164
  0
VERTEX
  5
4C8
  8
WARSTWA_1
 10
1460.277553646679
 20
238.7626315519514
 30
0.0
 42
-0.0158569723027105
  0
VERTEX
  5
4C9
  8
WARSTWA_1
 10
1460.288527968822
 20
238.7787907624061
 30
0.0
 42
-0.0080979104402164
  0
VERTEX
  5
4CA
  8
WARSTWA_1
 10
1460.311503776838
 20
238.8093619374317
 30
0.0
 42
-0.0177104318362604
  0
VERTEX
  5
4CB
  8
WARSTWA_1
 10
1468.638602042752
 20
248.7741385363981
 30
0.0
 42
-0.0097147322725941
  0
VERTEX
  5
4CC
  8
WARSTWA_1
 10
1476.729935275534
 20
257.4430276004145
 30
0.0
 42
-0.0060673195925364
  0
VERTEX
  5
4CD
  8
WARSTWA_1
 10
1484.81484250356
 20
265.5746863541304
 30
0.0
 42
0.0015868102438048
  0
VERTEX
  5
4CE
  8
WARSTWA_1
 10
1492.972290917749
 20
273.6335717821852
 30
0.0
 42
0.0053339856291524
  0
VERTEX
  5
4CF
  8
WARSTWA_1
 10
1501.259983099596
 20
282.0509573770116
 30
0.0
 42
0.0121948689901422
  0
VERTEX
  5
4D0
  8
WARSTWA_1
 10
1508.806177390404
 20
290.2727490854172
 30
0.0
 42
0.0065003814529652
  0
VERTEX
  5
4D1
  8
WARSTWA_1
 10
1511.812173182273
 20
293.8042377920255
 30
0.0
 42
0.015764898284456
  0
VERTEX
  5
4D2
  8
WARSTWA_1
 10
1516.430449707309
 20
299.7467026437438
 30
0.0
 42
0.0159065259359145
  0
VERTEX
  5
4D3
  8
WARSTWA_1
 10
1522.045909856486
 20
308.0021200001739
 30
0.0
 42
0.0069867695406662
  0
VERTEX
  5
4D4
  8
WARSTWA_1
 10
1527.568965787283
 20
316.9793963115421
 30
0.0
 42
0.0032440879596878
  0
VERTEX
  5
4D5
  8
WARSTWA_1
 10
1532.424390624276
 20
325.245822598466
 30
0.0
 42
-0.0037114635907433
  0
VERTEX
  5
4D6
  8
WARSTWA_1
 10
1537.287540297765
 20
333.5077067151846
 30
0.0
 42
-0.0024709785789373
  0
VERTEX
  5
4D7
  8
WARSTWA_1
 10
1539.352632644422
 20
336.9188458106216
 30
0.0
 42
0.0016281359207006
  0
SEQEND
  5
5D6
  8
WARSTWA_1
  0
POLYLINE
  5
7C
  8
WARSTWA_1
 66
     1
 10
0.0
 20
0.0
 30
0.0
 70
     1
  0
VERTEX
  5
4D8
  8
WARSTWA_1
 10
1457.139989953291
 20
377.7337059798452
 30
0.0
 42
-0.1559717748847133
  0
VERTEX
  5
4D9
  8
WARSTWA_1
 10
1457.09455820879
 20
377.6807567992432
 30
0.0
 42
0.0316976148237162
  0
VERTEX
  5
4DA
  8
WARSTWA_1
 10
1456.989092566322
 20
377.6061646342937
 30
0.0
 42
0.0139070144442321
  0
VERTEX
  5
4DB
  8
WARSTWA_1
 10
1449.156150884173
 20
370.9173772054735
 30
0.0
 42
0.0145532979999711
  0
VERTEX
  5
4DC
  8
WARSTWA_1
 10
1442.046646399539
 20
364.1100533327594
 30
0.0
 42
0.0088764991404589
  0
VERTEX
  5
4DD
  8
WARSTWA_1
 10
1436.82061499383
 20
358.6143437400647
 30
0.0
 42
0.0067325532949568
  0
VERTEX
  5
4DE
  8
WARSTWA_1
 10
1430.160119827734
 20
351.1572739978023
 30
0.0
 42
0.0237543395361034
  0
VERTEX
  5
4DF
  8
WARSTWA_1
 10
1429.334184961682
 20
350.1106153834031
 30
0.0
 42
0.0015732797281166
  0
VERTEX
  5
4E0
  8
WARSTWA_1
 10
1427.590346962818
 20
347.6545925404666
 30
0.0
 42
0.0009330453956971
  0
VERTEX
  5
4E1
  8
WARSTWA_1
 10
1425.295519026362
 20
344.3879899593491
 30
0.0
 42
0.0148979858312273
  0
VERTEX
  5
4E2
  8
WARSTWA_1
 10
1423.163363941358
 20
341.1389475158144
 30
0.0
 42
0.020586770636168
  0
VERTEX
  5
4E3
  8
WARSTWA_1
 10
1421.214286135053
 20
337.6527317205155
 30
0.0
 42
0.0397973349989001
  0
VERTEX
  5
4E4
  8
WARSTWA_1
 10
1419.618918263838
 20
333.7612687389797
 30
0.0
 42
0.0648411093195699
  0
VERTEX
  5
4E5
  8
WARSTWA_1
 10
1418.902084196655
 20
329.8222865943684
 30
0.0
 42
0.0330045676086691
  0
VERTEX
  5
4E6
  8
WARSTWA_1
 10
1418.961518197712
 20
325.9810860448329
 30
0.0
 42
0.0147128760496135
  0
VERTEX
  5
4E7
  8
WARSTWA_1
 10
1419.208106935065
 20
323.7662899813735
 30
0.0
 42
0.008592779313888
  0
VERTEX
  5
4E8
  8
WARSTWA_1
 10
1419.806469853885
 20
319.9983615633323
 30
0.0
 42
0.0008805666170399
  0
VERTEX
  5
4E9
  8
WARSTWA_1
 10
1420.544802869933
 20
315.857152581211
 30
0.0
 42
-0.0184803557706094
  0
VERTEX
  5
4EA
  8
WARSTWA_1
 10
1420.999970073479
 20
312.6559597059154
 30
0.0
 42
-0.0140865145769551
  0
VERTEX
  5
4EB
  8
WARSTWA_1
 10
1421.131583068375
 20
310.9301060968896
 30
0.0
 42
-0.0190450304698271
  0
VERTEX
  5
4EC
  8
WARSTWA_1
 10
1421.144202428156
 20
309.6497368448636
 30
0.0
 42
-0.0187127759110108
  0
VERTEX
  5
4ED
  8
WARSTWA_1
 10
1421.127368413249
 20
309.3936883287691
 30
0.0
 42
0.0044155415115818
  0
VERTEX
  5
4EE
  8
WARSTWA_1
 10
1421.030789884816
 20
308.3719212328347
 30
0.0
 42
0.0004556067563048
  0
VERTEX
  5
4EF
  8
WARSTWA_1
 10
1420.910837841691
 20
306.9557312889457
 30
0.0
 42
-0.0004556064766017
  0
VERTEX
  5
4F0
  8
WARSTWA_1
 10
1420.790885799359
 20
305.5395413449895
 30
0.0
 42
-0.0299964595010513
  0
VERTEX
  5
4F1
  8
WARSTWA_1
 10
1420.770217747595
 20
305.3983835365956
 30
0.0
 42
0.0186820731162187
  0
VERTEX
  5
4F2
  8
WARSTWA_1
 10
1420.674803437768
 20
304.8357949436781
 30
0.0
 42
0.0263165697794102
  0
VERTEX
  5
4F3
  8
WARSTWA_1
 10
1420.461234088484
 20
302.1039613982703
 30
0.0
 42
0.0298017351688808
  0
VERTEX
  5
4F4
  8
WARSTWA_1
 10
1420.69491574443
 20
295.2713277763328
 30
0.0
 42
0.0335483721886824
  0
VERTEX
  5
4F5
  8
WARSTWA_1
 10
1421.513877874918
 20
290.2236864661036
 30
0.0
 42
0.0322005525786847
  0
VERTEX
  5
4F6
  8
WARSTWA_1
 10
1422.072805389959
 20
288.3662554056395
 30
0.0
 42
0.0253632393143112
  0
VERTEX
  5
4F7
  8
WARSTWA_1
 10
1422.507524580055
 20
287.3588684181361
 30
0.0
 42
0.034056236837808
  0
VERTEX
  5
4F8
  8
WARSTWA_1
 10
1422.91813086369
 20
286.6519169554236
 30
0.0
 42
-0.5631620109161165
  0
VERTEX
  5
4F9
  8
WARSTWA_1
 10
1422.917530553669
 20
286.6506131973069
 30
0.0
 42
0.2068375375957036
  0
VERTEX
  5
4FA
  8
WARSTWA_1
 10
1422.916285970965
 20
286.6498982349017
 30
0.0
 42
0.0498807088050435
  0
VERTEX
  5
4FB
  8
WARSTWA_1
 10
1423.021489066213
 20
286.7781813874163
 30
0.0
 42
-0.0070648906931519
  0
VERTEX
  5
4FC
  8
WARSTWA_1
 10
1423.396643195588
 20
287.3249933001375
 30
0.0
 42
-0.0002820927753688
  0
VERTEX
  5
4FD
  8
WARSTWA_1
 10
1428.05691681948
 20
293.9081655540328
 30
0.0
 42
0.0008478038670469
  0
VERTEX
  5
4FE
  8
WARSTWA_1
 10
1432.709739117572
 20
300.4966063283268
 30
0.0
 42
0.0287350848712407
  0
VERTEX
  5
4FF
  8
WARSTWA_1
 10
1433.721056729961
 20
302.1250867805267
 30
0.0
 42
0.0062101840217784
  0
VERTEX
  5
500
  8
WARSTWA_1
 10
1435.107758371302
 20
304.7510268275623
 30
0.0
 42
-0.0093539223825222
  0
VERTEX
  5
501
  8
WARSTWA_1
 10
1436.713065315135
 20
307.7451901316368
 30
0.0
 42
-0.0308199863423072
  0
VERTEX
  5
502
  8
WARSTWA_1
 10
1438.118732920011
 20
309.9263406992745
 30
0.0
 42
-0.0499740323760028
  0
VERTEX
  5
503
  8
WARSTWA_1
 10
1440.072058146812
 20
312.0917227402033
 30
0.0
 42
-0.0938716682834265
  0
VERTEX
  5
504
  8
WARSTWA_1
 10
1442.742990305969
 20
313.7284739865922
 30
0.0
 42
-0.0371481686151683
  0
VERTEX
  5
505
  8
WARSTWA_1
 10
1443.869695435711
 20
314.0626395927686
 30
0.0
 42
-0.0014174533561346
  0
VERTEX
  5
506
  8
WARSTWA_1
 10
1446.708660940689
 20
314.671380837483
 30
0.0
  0
VERTEX
  5
507
  8
WARSTWA_1
 10
1447.129949446298
 20
314.7600842519594
 30
0.0
 42
0.1192803794484141
  0
VERTEX
  5
508
  8
WARSTWA_1
 10
1447.192627311613
 20
314.8199409977244
 30
0.0
 42
-0.0387589569112544
  0
VERTEX
  5
509
  8
WARSTWA_1
 10
1447.244971118526
 20
314.889016830632
 30
0.0
 42
0.0349545505860687
  0
VERTEX
  5
50A
  8
WARSTWA_1
 10
1451.534313453173
 20
320.4610076477525
 30
0.0
 42
0.0576582699046871
  0
VERTEX
  5
50B
  8
WARSTWA_1
 10
1455.277661337516
 20
327.8123337758993
 30
0.0
 42
0.0471535215007223
  0
VERTEX
  5
50C
  8
WARSTWA_1
 10
1457.036791442797
 20
334.3837906283867
 30
0.0
 42
0.0276468484125789
  0
VERTEX
  5
50D
  8
WARSTWA_1
 10
1457.700340813822
 20
340.2812580828963
 30
0.0
 42
0.0191720865616698
  0
VERTEX
  5
50E
  8
WARSTWA_1
 10
1457.808084650651
 20
346.1286170570055
 30
0.0
 42
0.0064116358623628
  0
VERTEX
  5
50F
  8
WARSTWA_1
 10
1457.570423808688
 20
353.3853723647649
 30
0.0
 42
-0.0005393656639712
  0
VERTEX
  5
510
  8
WARSTWA_1
 10
1457.218337241766
 20
361.2952407805515
 30
0.0
 42
-0.0085819062963619
  0
VERTEX
  5
511
  8
WARSTWA_1
 10
1457.016023138402
 20
369.0033680688762
 30
0.0
 42
-0.0055102955156668
  0
VERTEX
  5
512
  8
WARSTWA_1
 10
1457.024403606029
 20
373.3164330331796
 30
0.0
 42
-0.0058524180306137
  0
VERTEX
  5
513
  8
WARSTWA_1
 10
1457.124569957633
 20
377.376151400284
 30
0.0
 42
0.0148033373452373
  0
VERTEX
  5
514
  8
WARSTWA_1
 10
1457.1265116513
 20
377.6630228334376
 30
0.0
 42
-0.1060247623295496
  0
SEQEND
  5
5D7
  8
WARSTWA_1
  0
POLYLINE
  5
7D
  8
WARSTWA_1
 66
     1
 10
0.0
 20
0.0
 30
0.0
 70
     1
  0
VERTEX
  5
515
  8
WARSTWA_1
 10
1635.458192155046
 20
415.2583062168769
 30
0.0
 42
-0.0021081654075388
  0
VERTEX
  5
516
  8
WARSTWA_1
 10
1635.352605453711
 20
414.9202273684352
 30
0.0
 42
-0.082468437562712
  0
VERTEX
  5
517
  8
WARSTWA_1
 10
1635.207021404835
 20
414.634684139539
 30
0.0
 42
-0.1131576881218603
  0
VERTEX
  5
518
  8
WARSTWA_1
 10
1634.72216243028
 20
414.2184572003171
 30
0.0
 42
-0.0619053005316257
  0
VERTEX
  5
519
  8
WARSTWA_1
 10
1633.638818081365
 20
413.810226287722
 30
0.0
 42
-0.0422587800579562
  0
VERTEX
  5
51A
  8
WARSTWA_1
 10
1632.152596318377
 20
413.5821852889011
 30
0.0
 42
-0.0217022280366729
  0
VERTEX
  5
51B
  8
WARSTWA_1
 10
1629.229455371863
 20
413.510892138229
 30
0.0
 42
-0.0126968648819208
  0
VERTEX
  5
51C
  8
WARSTWA_1
 10
1625.741648185655
 20
413.6658722419008
 30
0.0
 42
-0.0027488714312866
  0
VERTEX
  5
51D
  8
WARSTWA_1
 10
1620.351633852809
 20
414.0724859108306
 30
0.0
 42
0.0044464263197516
  0
VERTEX
  5
51E
  8
WARSTWA_1
 10
1613.461044291928
 20
414.5687792663078
 30
0.0
 42
0.0169643900825208
  0
VERTEX
  5
51F
  8
WARSTWA_1
 10
1608.574558130675
 20
414.7109297213466
 30
0.0
 42
0.0244563919819855
  0
VERTEX
  5
520
  8
WARSTWA_1
 10
1604.288929439141
 20
414.4803712618528
 30
0.0
 42
0.0398392327739898
  0
VERTEX
  5
521
  8
WARSTWA_1
 10
1601.695365841646
 20
414.0022949550804
 30
0.0
 42
0.0249938239934801
  0
VERTEX
  5
522
  8
WARSTWA_1
 10
1600.221308246216
 20
413.5270250615187
 30
0.0
 42
0.0426855149842947
  0
VERTEX
  5
523
  8
WARSTWA_1
 10
1597.507816741999
 20
412.2256316299664
 30
0.0
 42
0.0972860817375822
  0
VERTEX
  5
524
  8
WARSTWA_1
 10
1592.99571187258
 20
408.2162093697511
 30
0.0
 42
0.0431026095278451
  0
VERTEX
  5
525
  8
WARSTWA_1
 10
1591.070332693266
 20
405.1736911957925
 30
0.0
 42
0.0261602915696345
  0
VERTEX
  5
526
  8
WARSTWA_1
 10
1589.931091707146
 20
402.6614808829816
 30
0.0
 42
0.0170849670058772
  0
VERTEX
  5
527
  8
WARSTWA_1
 10
1588.52599637714
 20
398.6800922779822
 30
0.0
 42
0.0039355568584299
  0
VERTEX
  5
528
  8
WARSTWA_1
 10
1587.33010576195
 20
394.7758631596485
 30
0.0
 42
-0.0194205367068939
  0
VERTEX
  5
529
  8
WARSTWA_1
 10
1586.013912836012
 20
390.910530631436
 30
0.0
 42
-0.0218550324796643
  0
VERTEX
  5
52A
  8
WARSTWA_1
 10
1584.911552554476
 20
388.3793224466488
 30
0.0
 42
-0.0266323978439319
  0
VERTEX
  5
52B
  8
WARSTWA_1
 10
1583.809853148782
 20
386.3990337594605
 30
0.0
 42
-0.007563094202632
  0
VERTEX
  5
52C
  8
WARSTWA_1
 10
1582.868886208291
 20
384.9504258142093
 30
0.0
 42
-0.0075258395192556
  0
VERTEX
  5
52D
  8
WARSTWA_1
 10
1581.87976755667
 20
383.5238426073952
 30
0.0
 42
-0.0042410492008733
  0
VERTEX
  5
52E
  8
WARSTWA_1
 10
1582.536040229774
 20
384.0075941029017
 30
0.0
 42
0.0254516362450878
  0
VERTEX
  5
52F
  8
WARSTWA_1
 10
1582.694861969471
 20
384.1354023031035
 30
0.0
 42
0.0254249159807441
  0
VERTEX
  5
530
  8
WARSTWA_1
 10
1582.880091957961
 20
384.3184044026945
 30
0.0
 42
-0.0049455285756691
  0
VERTEX
  5
531
  8
WARSTWA_1
 10
1583.590305905804
 20
385.0800021218674
 30
0.0
 42
-0.0008619162864488
  0
VERTEX
  5
532
  8
WARSTWA_1
 10
1588.538981307262
 20
390.2646537889459
 30
0.0
 42
0.01597401932197
  0
VERTEX
  5
533
  8
WARSTWA_1
 10
1589.736528586154
 20
391.5977299792304
 30
0.0
 42
0.0247562788190706
  0
VERTEX
  5
534
  8
WARSTWA_1
 10
1591.588976992342
 20
394.0322524039804
 30
0.0
 42
-0.0002601319125481
  0
VERTEX
  5
535
  8
WARSTWA_1
 10
1593.65549343636
 20
397.0434034843948
 30
0.0
 42
-0.0155351105429927
  0
VERTEX
  5
536
  8
WARSTWA_1
 10
1595.720941854745
 20
399.8581356042557
 30
0.0
 42
-0.0474011689517532
  0
VERTEX
  5
537
  8
WARSTWA_1
 10
1597.635283848089
 20
401.8769156667696
 30
0.0
 42
-0.0416812539760004
  0
VERTEX
  5
538
  8
WARSTWA_1
 10
1598.987627162532
 20
402.8710294423922
 30
0.0
 42
-0.0498364315153523
  0
VERTEX
  5
539
  8
WARSTWA_1
 10
1600.251976892601
 20
403.4833322166434
 30
0.0
 42
-0.0688349692041443
  0
VERTEX
  5
53A
  8
WARSTWA_1
 10
1605.958603177367
 20
404.723249790737
 30
0.0
 42
-0.0378249297852446
  0
VERTEX
  5
53B
  8
WARSTWA_1
 10
1611.282892063088
 20
404.7279587416634
 30
0.0
 42
-0.0243894255240055
  0
VERTEX
  5
53C
  8
WARSTWA_1
 10
1615.864226754995
 20
404.159276366305
 30
0.0
 42
-0.0094852583922976
  0
VERTEX
  5
53D
  8
WARSTWA_1
 10
1621.019039306959
 20
403.1612859959843
 30
0.0
 42
0.0028136087394203
  0
VERTEX
  5
53E
  8
WARSTWA_1
 10
1625.373382788249
 20
402.2578330500011
 30
0.0
 42
0.0211028610537245
  0
VERTEX
  5
53F
  8
WARSTWA_1
 10
1627.716437368478
 20
401.8875122607843
 30
0.0
 42
0.0114483614896947
  0
VERTEX
  5
540
  8
WARSTWA_1
 10
1628.704140921129
 20
401.7967263533553
 30
0.0
 42
0.0118644789869212
  0
VERTEX
  5
541
  8
WARSTWA_1
 10
1631.328658514562
 20
401.6784511464613
 30
0.0
 42
0.0295644341509762
  0
VERTEX
  5
542
  8
WARSTWA_1
 10
1633.297846223976
 20
401.7529307129975
 30
0.0
 42
0.0561480262365658
  0
VERTEX
  5
543
  8
WARSTWA_1
 10
1634.315163472207
 20
401.9688012250427
 30
0.0
 42
0.069564475985998
  0
VERTEX
  5
544
  8
WARSTWA_1
 10
1635.049433078617
 20
402.3327568322862
 30
0.0
 42
0.1537601819694223
  0
VERTEX
  5
545
  8
WARSTWA_1
 10
1635.904785125676
 20
403.4200132160241
 30
0.0
 42
0.0981691332753088
  0
VERTEX
  5
546
  8
WARSTWA_1
 10
1636.129001345308
 20
404.7604158189093
 30
0.0
 42
0.0118670601785648
  0
VERTEX
  5
547
  8
WARSTWA_1
 10
1636.061581000851
 20
406.0146291705024
 30
0.0
 42
-0.0030632676328939
  0
VERTEX
  5
548
  8
WARSTWA_1
 10
1635.684519490013
 20
411.2933104000671
 30
0.0
 42
-0.0040819678722054
  0
SEQEND
  5
5D8
  8
WARSTWA_1
  0
POLYLINE
  5
7E
  8
WARSTWA_1
 66
     1
 10
0.0
 20
0.0
 30
0.0
 70
     1
  0
VERTEX
  5
549
  8
WARSTWA_1
 10
1588.003927632698
 20
446.356672510722
 30
0.0
 42
-0.0107245657444003
  0
VERTEX
  5
54A
  8
WARSTWA_1
 10
1595.279682424914
 20
449.6594505691709
 30
0.0
 42
-0.0270399711146256
  0
VERTEX
  5
54B
  8
WARSTWA_1
 10
1607.237802991874
 20
454.0328145146296
 30
0.0
 42
-0.0161427185336651
  0
VERTEX
  5
54C
  8
WARSTWA_1
 10
1613.853092246853
 20
455.8228595136441
 30
0.0
 42
-0.0166711813460341
  0
VERTEX
  5
54D
  8
WARSTWA_1
 10
1620.358668955976
 20
457.1324081761805
 30
0.0
 42
-0.0125170825394749
  0
VERTEX
  5
54E
  8
WARSTWA_1
 10
1621.690147320369
 20
457.320408712118
 30
0.0
 42
0.0131088961121528
  0
VERTEX
  5
54F
  8
WARSTWA_1
 10
1623.021402266432
 20
457.5099848312394
 30
0.0
 42
0.0400177423498327
  0
VERTEX
  5
550
  8
WARSTWA_1
 10
1624.037574080865
 20
457.7669270025739
 30
0.0
 42
0.0053683661003306
  0
VERTEX
  5
551
  8
WARSTWA_1
 10
1625.886479169998
 20
458.4176087974748
 30
0.0
 42
-0.0199372899355002
  0
VERTEX
  5
552
  8
WARSTWA_1
 10
1627.408111681696
 20
458.9037863917464
 30
0.0
 42
-0.0784897875776742
  0
VERTEX
  5
553
  8
WARSTWA_1
 10
1627.813620193297
 20
458.9496944787398
 30
0.0
 42
-0.1383238740965955
  0
VERTEX
  5
554
  8
WARSTWA_1
 10
1628.013623438612
 20
458.8836750035949
 30
0.0
 42
-0.2212627095936339
  0
VERTEX
  5
555
  8
WARSTWA_1
 10
1628.083480837696
 20
458.7675447531627
 30
0.0
 42
0.0080501728436496
  0
VERTEX
  5
556
  8
WARSTWA_1
 10
1628.165091834925
 20
461.4390283332956
 30
0.0
 42
0.019554748127343
  0
VERTEX
  5
557
  8
WARSTWA_1
 10
1628.105108459509
 20
463.870451421276
 30
0.0
 42
-0.0459034461339982
  0
VERTEX
  5
558
  8
WARSTWA_1
 10
1628.176675490984
 20
466.4282245600947
 30
0.0
 42
-0.0163334177190839
  0
VERTEX
  5
559
  8
WARSTWA_1
 10
1628.432612045221
 20
468.0948060533384
 30
0.0
 42
0.0089499777378108
  0
VERTEX
  5
55A
  8
WARSTWA_1
 10
1628.594576631815
 20
469.0547789112127
 30
0.0
 42
0.0969544058126089
  0
VERTEX
  5
55B
  8
WARSTWA_1
 10
1628.57401634616
 20
469.5211164632448
 30
0.0
 42
0.2168821423924366
  0
VERTEX
  5
55C
  8
WARSTWA_1
 10
1628.34395720271
 20
469.8147978347955
 30
0.0
 42
0.0937678070973081
  0
VERTEX
  5
55D
  8
WARSTWA_1
 10
1628.126623246512
 20
469.8801610240399
 30
0.0
 42
0.0811966905662363
  0
VERTEX
  5
55E
  8
WARSTWA_1
 10
1627.612363989957
 20
469.8508773198837
 30
0.0
 42
0.02462776972723
  0
VERTEX
  5
55F
  8
WARSTWA_1
 10
1625.984562964823
 20
469.4035833965219
 30
0.0
 42
0.0067996215707347
  0
VERTEX
  5
560
  8
WARSTWA_1
 10
1624.311037055553
 20
468.8284696615302
 30
0.0
 42
-0.0036749549574295
  0
VERTEX
  5
561
  8
WARSTWA_1
 10
1617.631466021996
 20
466.4862365564142
 30
0.0
 42
0.0041684402219071
  0
VERTEX
  5
562
  8
WARSTWA_1
 10
1612.109463993547
 20
464.5437900015802
 30
0.0
 42
0.0171474146261679
  0
VERTEX
  5
563
  8
WARSTWA_1
 10
1608.403861773536
 20
463.0599662541982
 30
0.0
 42
0.0214469004590376
  0
VERTEX
  5
564
  8
WARSTWA_1
 10
1605.175408335341
 20
461.4682531927677
 30
0.0
 42
0.0580110864697995
  0
VERTEX
  5
565
  8
WARSTWA_1
 10
1600.644863593242
 20
458.2554703488978
 30
0.0
 42
0.0193006185559539
  0
VERTEX
  5
566
  8
WARSTWA_1
 10
1598.426354401574
 20
456.0985566002297
 30
0.0
 42
-0.0007703378414735
  0
VERTEX
  5
567
  8
WARSTWA_1
 10
1595.697119596251
 20
453.2409178561931
 30
0.0
 42
-0.0111279725972048
  0
VERTEX
  5
568
  8
WARSTWA_1
 10
1592.707370469843
 20
450.2560476049133
 30
0.0
 42
-0.0350759985065602
  0
SEQEND
  5
5D9
  8
WARSTWA_1
  0
POLYLINE
  5
7F
  8
WARSTWA_1
 66
     1
 10
0.0
 20
0.0
 30
0.0
 70
     1
  0
VERTEX
  5
569
  8
WARSTWA_1
 10
1454.319374997531
 20
317.834446014753
 30
0.0
 42
-0.0014232474434903
  0
VERTEX
  5
56A
  8
WARSTWA_1
 10
1464.192055826819
 20
319.8763427810171
 30
0.0
 42
0.0061525876272435
  0
VERTEX
  5
56B
  8
WARSTWA_1
 10
1474.044981988183
 20
322.0115278361775
 30
0.0
 42
0.0117445119362517
  0
VERTEX
  5
56C
  8
WARSTWA_1
 10
1484.92691096978
 20
324.780856135902
 30
0.0
 42
0.0226370974604987
  0
VERTEX
  5
56D
  8
WARSTWA_1
 10
1496.178816210877
 20
328.4840769956047
 30
0.0
 42
0.020323558375171
  0
VERTEX
  5
56E
  8
WARSTWA_1
 10
1504.519422065114
 20
332.04845294787
 30
0.0
 42
0.0283319652568453
  0
VERTEX
  5
56F
  8
WARSTWA_1
 10
1515.046108533152
 20
337.8149578111663
 30
0.0
 42
0.0134363903650438
  0
VERTEX
  5
570
  8
WARSTWA_1
 10
1522.098269483469
 20
342.4825413801333
 30
0.0
 42
0.0089050749170541
  0
VERTEX
  5
571
  8
WARSTWA_1
 10
1532.412665960341
 20
349.9926931764351
 30
0.0
 42
0.0057759074790708
  0
VERTEX
  5
572
  8
WARSTWA_1
 10
1543.727681624162
 20
358.7510345862944
 30
0.0
 42
-0.0002581790690779
  0
VERTEX
  5
573
  8
WARSTWA_1
 10
1558.218353665803
 20
370.2254119868962
 30
0.0
 42
0.0013595441106357
  0
VERTEX
  5
574
  8
WARSTWA_1
 10
1563.141739765841
 20
374.141650154519
 30
0.0
 42
0.0134571666593889
  0
VERTEX
  5
575
  8
WARSTWA_1
 10
1568.162080619337
 20
378.3838332393648
 30
0.0
 42
0.020256643250078
  0
VERTEX
  5
576
  8
WARSTWA_1
 10
1573.38055155189
 20
383.4339444467967
 30
0.0
 42
0.0501269644412017
  0
VERTEX
  5
577
  8
WARSTWA_1
 10
1580.545499708595
 20
392.6446652534911
 30
0.0
 42
0.040847916656052
  0
VERTEX
  5
578
  8
WARSTWA_1
 10
1582.227182284953
 20
395.8804513761797
 30
0.0
 42
0.0192537011912351
  0
VERTEX
  5
579
  8
WARSTWA_1
 10
1583.520606882968
 20
399.325703706049
 30
0.0
 42
0.0094471535688692
  0
VERTEX
  5
57A
  8
WARSTWA_1
 10
1584.82772387384
 20
403.5252940962404
 30
0.0
 42
-0.0171931405536731
  0
VERTEX
  5
57B
  8
WARSTWA_1
 10
1586.199729547998
 20
407.7041354073324
 30
0.0
 42
-0.0287821728574589
  0
VERTEX
  5
57C
  8
WARSTWA_1
 10
1587.833408524644
 20
411.4715081061922
 30
0.0
 42
-0.0576481210660739
  0
VERTEX
  5
57D
  8
WARSTWA_1
 10
1590.155500346838
 20
415.0012637945845
 30
0.0
 42
-0.0840127580025724
  0
VERTEX
  5
57E
  8
WARSTWA_1
 10
1594.155673776343
 20
418.4125848488599
 30
0.0
 42
-0.0580787340990729
  0
VERTEX
  5
57F
  8
WARSTWA_1
 10
1597.880852988412
 20
420.0871265133217
 30
0.0
 42
-0.0434218355418688
  0
VERTEX
  5
580
  8
WARSTWA_1
 10
1600.305208910406
 20
420.6283386799519
 30
0.0
 42
-0.0270504526538995
  0
VERTEX
  5
581
  8
WARSTWA_1
 10
1604.275678674499
 20
420.9417064374181
 30
0.0
 42
-0.0201797977217448
  0
VERTEX
  5
582
  8
WARSTWA_1
 10
1609.302173275762
 20
420.8628820520996
 30
0.0
 42
-0.0059843993292152
  0
VERTEX
  5
583
  8
WARSTWA_1
 10
1615.951735650862
 20
420.4099917333522
 30
0.0
 42
0.001701341917977
  0
VERTEX
  5
584
  8
WARSTWA_1
 10
1622.094452503703
 20
419.9387271996994
 30
0.0
 42
0.011459568273898
  0
VERTEX
  5
585
  8
WARSTWA_1
 10
1625.502177553469
 20
419.7673501025427
 30
0.0
 42
0.0196432438918233
  0
VERTEX
  5
586
  8
WARSTWA_1
 10
1628.584799648844
 20
419.8041927007189
 30
0.0
 42
0.0384143007910451
  0
VERTEX
  5
587
  8
WARSTWA_1
 10
1630.150020506637
 20
420.0056796205506
 30
0.0
 42
0.055546339311191
  0
VERTEX
  5
588
  8
WARSTWA_1
 10
1631.32369254743
 20
420.3891496793874
 30
0.0
 42
0.1029925311182938
  0
VERTEX
  5
589
  8
WARSTWA_1
 10
1631.865003685357
 20
420.7855155113
 30
0.0
 42
0.0629573367593012
  0
VERTEX
  5
58A
  8
WARSTWA_1
 10
1632.015603756408
 20
421.0020255507791
 30
0.0
 42
0.0522518416790312
  0
VERTEX
  5
58B
  8
WARSTWA_1
 10
1632.13261804748
 20
421.2970484340447
 30
0.0
 42
-0.0258080847823343
  0
VERTEX
  5
58C
  8
WARSTWA_1
 10
1632.167067047391
 20
421.3993571716052
 30
0.0
 42
0.0629768093753825
  0
VERTEX
  5
58D
  8
WARSTWA_1
 10
1632.193838714802
 20
421.5039377109047
 30
0.0
 42
0.0654514083273976
  0
VERTEX
  5
58E
  8
WARSTWA_1
 10
1632.193463154955
 20
421.567648403653
 30
0.0
 42
-0.0224010421711684
  0
VERTEX
  5
58F
  8
WARSTWA_1
 10
1632.187621577533
 20
421.6310918382139
 30
0.0
 42
-0.0061266906637013
  0
VERTEX
  5
590
  8
WARSTWA_1
 10
1632.055717234802
 20
425.4233343239482
 30
0.0
 42
-0.0085393927273638
  0
VERTEX
  5
591
  8
WARSTWA_1
 10
1632.040914735429
 20
428.1458260363622
 30
0.0
 42
0.0066620135727249
  0
VERTEX
  5
592
  8
WARSTWA_1
 10
1632.029485638246
 20
434.9386615920071
 30
0.0
 42
0.0002163797401184
  0
VERTEX
  5
593
  8
WARSTWA_1
 10
1631.915180026776
 20
442.3417131692283
 30
0.0
 42
-0.0037856864625389
  0
VERTEX
  5
594
  8
WARSTWA_1
 10
1631.865083484938
 20
448.3769149789924
 30
0.0
 42
-0.0118607631365048
  0
VERTEX
  5
595
  8
WARSTWA_1
 10
1631.973974259944
 20
453.1122703950339
 30
0.0
 42
0.0101546983111007
  0
VERTEX
  5
596
  8
WARSTWA_1
 10
1631.985021820024
 20
453.5305948558248
 30
0.0
 42
0.2823680291538131
  0
VERTEX
  5
597
  8
WARSTWA_1
 10
1631.895669079123
 20
453.678210550918
 30
0.0
 42
0.1591593072387064
  0
VERTEX
  5
598
  8
WARSTWA_1
 10
1631.64191053647
 20
453.7192678858587
 30
0.0
 42
0.0394930268326489
  0
VERTEX
  5
599
  8
WARSTWA_1
 10
1630.657595191588
 20
453.4844223799125
 30
0.0
 42
0.014736304881814
  0
VERTEX
  5
59A
  8
WARSTWA_1
 10
1629.123156492854
 20
452.937099299259
 30
0.0
 42
-0.0256716656501072
  0
VERTEX
  5
59B
  8
WARSTWA_1
 10
1627.577120061346
 20
452.4234495866719
 30
0.0
 42
-0.0258421956196195
  0
VERTEX
  5
59C
  8
WARSTWA_1
 10
1626.845178718035
 20
452.2614954060931
 30
0.0
 42
-0.0125535086763321
  0
VERTEX
  5
59D
  8
WARSTWA_1
 10
1625.318076603589
 20
452.0447675206377
 30
0.0
 42
0.0149997729965669
  0
VERTEX
  5
59E
  8
WARSTWA_1
 10
1623.560659809565
 20
451.786577254479
 30
0.0
 42
0.0126765864846944
  0
VERTEX
  5
59F
  8
WARSTWA_1
 10
1618.245698392226
 20
450.7024275312458
 30
0.0
 42
0.0339828083476912
  0
VERTEX
  5
5A0
  8
WARSTWA_1
 10
1604.396363994211
 20
446.5014712070432
 30
0.0
 42
0.020336455144247
  0
VERTEX
  5
5A1
  8
WARSTWA_1
 10
1592.945983031485
 20
441.6181837614702
 30
0.0
 42
0.0071394840698904
  0
VERTEX
  5
5A2
  8
WARSTWA_1
 10
1587.950595160753
 20
439.155256410053
 30
0.0
 42
0.0071218719318033
  0
VERTEX
  5
5A3
  8
WARSTWA_1
 10
1583.015304266464
 20
436.5444306320794
 30
0.0
 42
0.0150196047629492
  0
VERTEX
  5
5A4
  8
WARSTWA_1
 10
1580.361365068837
 20
434.9863499898411
 30
0.0
 42
-0.000494787491695
  0
VERTEX
  5
5A5
  8
WARSTWA_1
 10
1577.085408909317
 20
432.9328814556545
 30
0.0
 42
-0.011027749796887
  0
VERTEX
  5
5A6
  8
WARSTWA_1
 10
1573.330017699208
 20
430.6977356747908
 30
0.0
 42
-0.0210504895149788
  0
VERTEX
  5
5A7
  8
WARSTWA_1
 10
1571.291004013571
 20
429.6549972363707
 30
0.0
 42
-0.0901454852446199
  0
VERTEX
  5
5A8
  8
WARSTWA_1
 10
1568.044049425991
 20
428.8230730969597
 30
0.0
 42
-0.0323257031313045
  0
VERTEX
  5
5A9
  8
WARSTWA_1
 10
1565.841136960547
 20
428.8090024030087
 30
0.0
 42
-0.01752157736389
  0
VERTEX
  5
5AA
  8
WARSTWA_1
 10
1563.925139053881
 20
428.9882492704213
 30
0.0
 42
0.013902614866259
  0
VERTEX
  5
5AB
  8
WARSTWA_1
 10
1562.010488351787
 20
429.1813557353514
 30
0.0
 42
0.009137389813459
  0
VERTEX
  5
5AC
  8
WARSTWA_1
 10
1560.866572700506
 20
429.24369171279
 30
0.0
 42
0.0040232197273806
  0
VERTEX
  5
5AD
  8
WARSTWA_1
 10
1555.055423772028
 20
429.4071384734041
 30
0.0
 42
0.0101506985673419
  0
VERTEX
  5
5AE
  8
WARSTWA_1
 10
1550.277680193451
 20
429.4060486759976
 30
0.0
 42
0.0284058526118814
  0
VERTEX
  5
5AF
  8
WARSTWA_1
 10
1549.12587091172
 20
429.3168068215953
 30
0.0
 42
0.0447499460548562
  0
VERTEX
  5
5B0
  8
WARSTWA_1
 10
1547.717152389179
 20
428.9965171732076
 30
0.0
 42
0.0195360522597989
  0
VERTEX
  5
5B1
  8
WARSTWA_1
 10
1544.615948625187
 20
427.8572117324245
 30
0.0
 42
0.0148600828512944
  0
VERTEX
  5
5B2
  8
WARSTWA_1
 10
1539.895870096139
 20
425.7445155705994
 30
0.0
 42
0.0075035702629648
  0
VERTEX
  5
5B3
  8
WARSTWA_1
 10
1530.746137356299
 20
421.1475359975473
 30
0.0
 42
0.0047200059091222
  0
VERTEX
  5
5B4
  8
WARSTWA_1
 10
1519.941711894452
 20
415.3842228063068
 30
0.0
 42
-0.0038703437908309
  0
VERTEX
  5
5B5
  8
WARSTWA_1
 10
1514.129225349521
 20
412.2710182641265
 30
0.0
 42
0.0009506678318563
  0
VERTEX
  5
5B6
  8
WARSTWA_1
 10
1511.340921357661
 20
410.7984725317606
 30
0.0
 42
0.0056928279294539
  0
VERTEX
  5
5B7
  8
WARSTWA_1
 10
1508.109328535592
 20
409.036514572909
 30
0.0
 42
0.0120097228284129
  0
VERTEX
  5
5B8
  8
WARSTWA_1
 10
1497.726745455485
 20
402.889180144275
 30
0.0
 42
0.0054055244911785
  0
VERTEX
  5
5B9
  8
WARSTWA_1
 10
1487.162240094565
 20
396.1265160874634
 30
0.0
 42
0.0028856100539909
  0
VERTEX
  5
5BA
  8
WARSTWA_1
 10
1478.550525235786
 20
390.4103986633667
 30
0.0
 42
-0.0030561823111846
  0
VERTEX
  5
5BB
  8
WARSTWA_1
 10
1469.936860873263
 20
384.6972193851731
 30
0.0
 42
-0.002972955710375
  0
VERTEX
  5
5BC
  8
WARSTWA_1
 10
1466.437350488784
 20
382.4363842226077
 30
0.0
 42
-0.0043731805502703
  0
VERTEX
  5
5BD
  8
WARSTWA_1
 10
1464.035980946832
 20
380.934535774774
 30
0.0
  0
VERTEX
  5
5BE
  8
WARSTWA_1
 10
1463.553208749867
 20
380.6398042384604
 30
0.0
  0
VERTEX
  5
5BF
  8
WARSTWA_1
 10
1463.540028746936
 20
380.2875524044689
 30
0.0
 42
0.0164356615192083
  0
VERTEX
  5
5C0
  8
WARSTWA_1
 10
1463.498091383746
 20
368.3210901110319
 30
0.0
 42
0.004429601238552
  0
VERTEX
  5
5C1
  8
WARSTWA_1
 10
1463.834913185178
 20
359.5133509249703
 30
0.0
 42
-0.0009928907398115
  0
VERTEX
  5
5C2
  8
WARSTWA_1
 10
1464.119862068112
 20
353.1989610471016
 30
0.0
 42
-0.0128531432450814
  0
VERTEX
  5
5C3
  8
WARSTWA_1
 10
1464.229941905954
 20
346.8752293247856
 30
0.0
 42
-0.0222515903984525
  0
VERTEX
  5
5C4
  8
WARSTWA_1
 10
1463.886409241188
 20
340.3743655052129
 30
0.0
 42
-0.0431487974551388
  0
VERTEX
  5
5C5
  8
WARSTWA_1
 10
1462.637844289568
 20
333.648051042863
 30
0.0
 42
-0.080000046963216
  0
VERTEX
  5
5C6
  8
WARSTWA_1
 10
1457.887637874454
 20
323.2751163199359
 30
0.0
 42
-0.0342226682354862
  0
VERTEX
  5
5C7
  8
WARSTWA_1
 10
1453.660429907829
 20
317.8004178348167
 30
0.0
  0
VERTEX
  5
5C8
  8
WARSTWA_1
 10
1453.545408235368
 20
317.6714852560951
 30
0.0
  0
SEQEND
  5
5DA
  8
WARSTWA_1
  0
ENDSEC
  0
EOF
