  0
SECTION
  2
HEADER
  9
$ACADVER
  1
AC1009
  9
$DWGCODEPAGE
  3
ansi_1250
  9
$INSBASE
 10
0.0
 20
0.0
 30
0.0
  9
$EXTMIN
 10
0.0
 20
0.0
 30
0.0
  9
$EXTMAX
 10
2114.148412238555
 20
2258.031753238719
 30
0.0
  9
$LIMMIN
 10
0.0
 20
0.0
  9
$LIMMAX
 10
12.0
 20
9.0
  9
$ORTHOMODE
 70
     0
  9
$REGENMODE
 70
     1
  9
$FILLMODE
 70
     1
  9
$QTEXTMODE
 70
     0
  9
$MIRRTEXT
 70
     1
  9
$DRAGMODE
 70
     2
  9
$LTSCALE
 40
1.0
  9
$OSMODE
 70
    37
  9
$ATTMODE
 70
     1
  9
$TEXTSIZE
 40
0.2
  9
$TRACEWID
 40
0.05
  9
$TEXTSTYLE
  7
STANDARD
  9
$CLAYER
  8
0
  9
$CELTYPE
  6
BYLAYER
  9
$CECOLOR
 62
   256
  9
$DIMSCALE
 40
1.0
  9
$DIMASZ
 40
0.18
  9
$DIMEXO
 40
0.0625
  9
$DIMDLI
 40
0.38
  9
$DIMRND
 40
0.0
  9
$DIMDLE
 40
0.0
  9
$DIMEXE
 40
0.18
  9
$DIMTP
 40
0.0
  9
$DIMTM
 40
0.0
  9
$DIMTXT
 40
0.18
  9
$DIMCEN
 40
0.09
  9
$DIMTSZ
 40
0.0
  9
$DIMTOL
 70
     0
  9
$DIMLIM
 70
     0
  9
$DIMTIH
 70
     1
  9
$DIMTOH
 70
     1
  9
$DIMSE1
 70
     0
  9
$DIMSE2
 70
     0
  9
$DIMTAD
 70
     0
  9
$DIMZIN
 70
     0
  9
$DIMBLK
  1

  9
$DIMASO
 70
     1
  9
$DIMSHO
 70
     1
  9
$DIMPOST
  1

  9
$DIMAPOST
  1

  9
$DIMALT
 70
     0
  9
$DIMALTD
 70
     2
  9
$DIMALTF
 40
25.4
  9
$DIMLFAC
 40
1.0
  9
$DIMTOFL
 70
     0
  9
$DIMTVP
 40
0.0
  9
$DIMTIX
 70
     0
  9
$DIMSOXD
 70
     0
  9
$DIMSAH
 70
     0
  9
$DIMBLK1
  1

  9
$DIMBLK2
  1

  9
$DIMSTYLE
  2
STANDARD
  9
$DIMCLRD
 70
     0
  9
$DIMCLRE
 70
     0
  9
$DIMCLRT
 70
     0
  9
$DIMTFAC
 40
1.0
  9
$DIMGAP
 40
0.09
  9
$LUNITS
 70
     2
  9
$LUPREC
 70
     4
  9
$SKETCHINC
 40
0.1
  9
$FILLETRAD
 40
0.5
  9
$AUNITS
 70
     0
  9
$AUPREC
 70
     0
  9
$MENU
  1
.
  9
$ELEVATION
 40
0.0
  9
$PELEVATION
 40
0.0
  9
$THICKNESS
 40
0.0
  9
$LIMCHECK
 70
     0
  9
$CHAMFERA
 40
0.0
  9
$CHAMFERB
 40
0.0
  9
$SKPOLY
 70
     0
  9
$TDCREATE
 40
2454910.5
  9
$TDUPDATE
 40
2457949.450751875
  9
$TDINDWG
 40
0.0000000116
  9
$TDUSRTIMER
 40
0.0000000116
  9
$USRTIMER
 70
     1
  9
$ANGBASE
 50
0.0
  9
$ANGDIR
 70
     0
  9
$PDMODE
 70
     0
  9
$PDSIZE
 40
0.0
  9
$PLINEWID
 40
0.0
  9
$COORDS
 70
     1
  9
$SPLFRAME
 70
     0
  9
$SPLINETYPE
 70
     6
  9
$SPLINESEGS
 70
     8
  9
$ATTDIA
 70
     0
  9
$ATTREQ
 70
     1
  9
$HANDLING
 70
     1
  9
$HANDSEED
  5
F54
  9
$SURFTAB1
 70
     6
  9
$SURFTAB2
 70
     6
  9
$SURFTYPE
 70
     6
  9
$SURFU
 70
     6
  9
$SURFV
 70
     6
  9
$UCSNAME
  2

  9
$UCSORG
 10
0.0
 20
0.0
 30
0.0
  9
$UCSXDIR
 10
1.0
 20
0.0
 30
0.0
  9
$UCSYDIR
 10
0.0
 20
1.0
 30
0.0
  9
$PUCSNAME
  2

  9
$PUCSORG
 10
0.0
 20
0.0
 30
0.0
  9
$PUCSXDIR
 10
1.0
 20
0.0
 30
0.0
  9
$PUCSYDIR
 10
0.0
 20
1.0
 30
0.0
  9
$USERI1
 70
     0
  9
$USERI2
 70
     0
  9
$USERI3
 70
     0
  9
$USERI4
 70
     0
  9
$USERI5
 70
     0
  9
$USERR1
 40
0.0
  9
$USERR2
 40
0.0
  9
$USERR3
 40
0.0
  9
$USERR4
 40
0.0
  9
$USERR5
 40
0.0
  9
$WORLDVIEW
 70
     1
  9
$SHADEDGE
 70
     3
  9
$SHADEDIF
 70
    70
  9
$TILEMODE
 70
     1
  9
$MAXACTVP
 70
    64
  9
$PLIMCHECK
 70
     0
  9
$PEXTMIN
 10
1.000000000000000E+20
 20
1.000000000000000E+20
 30
1.000000000000000E+20
  9
$PEXTMAX
 10
-1.000000000000000E+20
 20
-1.000000000000000E+20
 30
-1.000000000000000E+20
  9
$PLIMMIN
 10
0.0
 20
0.0
  9
$PLIMMAX
 10
12.0
 20
9.0
  9
$UNITMODE
 70
     0
  9
$VISRETAIN
 70
     1
  9
$PLINEGEN
 70
     0
  9
$PSLTSCALE
 70
     1
  0
ENDSEC
  0
SECTION
  2
TABLES
  0
TABLE
  2
VPORT
 70
     1
  0
VPORT
  2
*ACTIVE
 70
     0
 10
0.0
 20
0.0
 11
1.0
 21
1.0
 12
10.42990654205607
 22
4.5
 13
0.0
 23
0.0
 14
0.5
 24
0.5
 15
0.5
 25
0.5
 16
0.0
 26
0.0
 36
1.0
 17
0.0
 27
0.0
 37
0.0
 40
9.0
 41
1.972972972850329
 42
50.0
 43
0.0
 44
0.0
 50
0.0
 51
0.0
 71
     0
 72
   100
 73
     1
 74
     3
 75
     0
 76
     0
 77
     0
 78
     0
  0
ENDTAB
  0
TABLE
  2
LTYPE
 70
     2
  0
LTYPE
  2
CONTINUOUS
 70
     0
  3
Solid line
 72
    65
 73
     0
 40
0.0
  0
LTYPE
  2
CONTINUOUS2
 70
     0
  3
Solid Line
 72
    65
 73
     0
 40
0.0
  0
ENDTAB
  0
TABLE
  2
LAYER
 70
     6
  0
LAYER
  2
0
 70
     0
 62
     7
  6
CONTINUOUS
  0
LAYER
  2
LGR
 70
     0
 62
    18
  6
CONTINUOUS
  0
LAYER
  2
LPU
 70
     0
 62
     4
  6
CONTINUOUS
  0
LAYER
  2
WYM
 70
     0
 62
     8
  6
CONTINUOUS
  0
LAYER
  2
TXT
 70
     0
 62
     6
  6
CONTINUOUS
  0
LAYER
  2
RAMKA
 70
     0
 62
    18
  6
CONTINUOUS
  0
ENDTAB
  0
TABLE
  2
STYLE
 70
     1
  0
STYLE
  2
STANDARD
 70
     0
 40
0.0
 41
1.0
 50
0.0
 71
     0
 42
0.2
  3
txt
  4

  0
ENDTAB
  0
TABLE
  2
VIEW
 70
     0
  0
ENDTAB
  0
TABLE
  2
UCS
 70
     0
  0
ENDTAB
  0
TABLE
  2
APPID
 70
     1
  0
APPID
  2
ACAD
 70
     0
  0
ENDTAB
  0
TABLE
  2
DIMSTYLE
 70
     1
  0
DIMSTYLE
  2
STANDARD
 70
     0
  3

  4

  5

  6

  7

 40
1.0
 41
0.18
 42
0.0625
 43
0.38
 44
0.18
 45
0.0
 46
0.0
 47
0.0
 48
0.0
140
0.18
141
0.09
142
0.0
143
25.4
144
1.0
145
0.0
146
1.0
147
0.09
 71
     0
 72
     0
 73
     1
 74
     1
 75
     0
 76
     0
 77
     0
 78
     0
170
     0
171
     2
172
     0
173
     0
174
     0
175
     0
176
     0
177
     0
178
     0
  0
ENDTAB
  0
ENDSEC
  0
SECTION
  2
BLOCKS
  0
BLOCK
  8
0
  2
$MODEL_SPACE
 70
     0
 10
0.0
 20
0.0
 30
0.0
  3
$MODEL_SPACE
  1

  0
ENDBLK
  5
21
  8
0
  0
BLOCK
 67
     1
  8
0
  2
$PAPER_SPACE
 70
     0
 10
0.0
 20
0.0
 30
0.0
  3
$PAPER_SPACE
  1

  0
ENDBLK
  5
1D
 67
     1
  8
0
  0
ENDSEC
  0
SECTION
  2
ENTITIES
  0
POLYLINE
  5
70
  8
LGR
 66
     1
 10
0.0
 20
0.0
 30
0.0
  0
VERTEX
  5
1E4
  8
LGR
 10
1956.693556950917
 20
1800.987699633704
 30
0.0
 42
0.8239980052649264
  0
VERTEX
  5
1E5
  8
LGR
 10
1277.264504963822
 20
1800.987699633704
 30
0.0
  0
SEQEND
  5
DEB
  8
LGR
  0
POLYLINE
  5
71
  8
LGR
 66
     1
 10
0.0
 20
0.0
 30
0.0
 70
     1
  0
VERTEX
  5
1E6
  8
LGR
 10
1243.379830651392
 20
1752.361791411907
 30
0.0
 42
0.4142135623730951
  0
VERTEX
  5
1E7
  8
LGR
 10
1225.829830651392
 20
1734.811791411907
 30
0.0
 42
0.4142135623730951
  0
VERTEX
  5
1E8
  8
LGR
 10
1243.379830651392
 20
1717.261791411907
 30
0.0
 42
0.4142135623730951
  0
VERTEX
  5
1E9
  8
LGR
 10
1260.929830651392
 20
1734.811791411907
 30
0.0
 42
0.4142135623730951
  0
SEQEND
  5
DEC
  8
LGR
  0
POLYLINE
  5
72
  8
LGR
 66
     1
 10
0.0
 20
0.0
 30
0.0
 70
     1
  0
VERTEX
  5
1EA
  8
LGR
 10
1992.679830651394
 20
1752.361791411907
 30
0.0
 42
0.4142135623730951
  0
VERTEX
  5
1EB
  8
LGR
 10
1975.129830651393
 20
1734.811791411907
 30
0.0
 42
0.4142135623730951
  0
VERTEX
  5
1EC
  8
LGR
 10
1992.679830651394
 20
1717.261791411907
 30
0.0
 42
0.4142135623730951
  0
VERTEX
  5
1ED
  8
LGR
 10
2010.229830651394
 20
1734.811791411907
 30
0.0
 42
0.4142135623730951
  0
SEQEND
  5
DED
  8
LGR
  0
POLYLINE
  5
73
  8
LGR
 66
     1
 10
0.0
 20
0.0
 30
0.0
  0
VERTEX
  5
1EE
  8
LGR
 10
1246.716278002253
 20
1784.700348407223
 30
0.0
 42
0.4339105898336039
  0
VERTEX
  5
1EF
  8
LGR
 10
1193.379830651392
 20
1734.811791411907
 30
0.0
 42
0.4339105898336039
  0
VERTEX
  5
1F0
  8
LGR
 10
1246.716278002253
 20
1684.923234416591
 30
0.0
  0
SEQEND
  5
DEE
  8
LGR
  0
POLYLINE
  5
74
  8
LGR
 66
     1
 10
0.0
 20
0.0
 30
0.0
  0
VERTEX
  5
1F1
  8
LGR
 10
1992.679830651394
 20
1684.811791411907
 30
0.0
 42
0.9999999999999997
  0
VERTEX
  5
1F2
  8
LGR
 10
1992.679830651394
 20
1784.811791411907
 30
0.0
  0
VERTEX
  5
1F3
  8
LGR
 10
1976.324561053404
 20
1784.811791411907
 30
0.0
  0
SEQEND
  5
DEF
  8
LGR
  0
POLYLINE
  5
75
  8
LGR
 66
     1
 10
0.0
 20
0.0
 30
0.0
  0
VERTEX
  5
1F4
  8
LGR
 10
1992.679830651394
 20
1684.811791411907
 30
0.0
  0
VERTEX
  5
1F5
  8
LGR
 10
1976.324561053404
 20
1684.811791411907
 30
0.0
  0
SEQEND
  5
DF0
  8
LGR
  0
POLYLINE
  5
76
  8
LGR
 66
     1
 10
0.0
 20
0.0
 30
0.0
  0
VERTEX
  5
1F6
  8
LGR
 10
1956.693556950917
 20
1800.987699633704
 30
0.0
 42
0.3589229494566057
  0
VERTEX
  5
1F7
  8
LGR
 10
1976.324561053404
 20
1784.811791411907
 30
0.0
  0
SEQEND
  5
DF1
  8
LGR
  0
POLYLINE
  5
77
  8
LGR
 66
     1
 10
0.0
 20
0.0
 30
0.0
  0
VERTEX
  5
1F8
  8
LGR
 10
1976.324561053404
 20
1684.811791411907
 30
0.0
 42
0.3589229494566079
  0
VERTEX
  5
1F9
  8
LGR
 10
1956.693556950917
 20
1668.635883190109
 30
0.0
  0
SEQEND
  5
DF2
  8
LGR
  0
POLYLINE
  5
78
  8
LGR
 66
     1
 10
0.0
 20
0.0
 30
0.0
  0
VERTEX
  5
1FA
  8
LGR
 10
1243.379830651392
 20
1784.811791411907
 30
0.0
  0
VERTEX
  5
1FB
  8
LGR
 10
1257.633500861334
 20
1784.811791411907
 30
0.0
  0
SEQEND
  5
DF3
  8
LGR
  0
POLYLINE
  5
79
  8
LGR
 66
     1
 10
0.0
 20
0.0
 30
0.0
  0
VERTEX
  5
1FC
  8
LGR
 10
1243.379830651392
 20
1684.811791411907
 30
0.0
  0
VERTEX
  5
1FD
  8
LGR
 10
1257.633500861334
 20
1684.811791411907
 30
0.0
  0
SEQEND
  5
DF4
  8
LGR
  0
POLYLINE
  5
7A
  8
LGR
 66
     1
 10
0.0
 20
0.0
 30
0.0
  0
VERTEX
  5
1FE
  8
LGR
 10
1277.264504963822
 20
1668.63588319011
 30
0.0
 42
0.8239980052649263
  0
VERTEX
  5
1FF
  8
LGR
 10
1956.693556950917
 20
1668.635883190109
 30
0.0
  0
SEQEND
  5
DF5
  8
LGR
  0
POLYLINE
  5
7B
  8
LGR
 66
     1
 10
0.0
 20
0.0
 30
0.0
  0
VERTEX
  5
200
  8
LGR
 10
1257.633500861334
 20
1784.811791411907
 30
0.0
 42
0.3589229494566014
  0
VERTEX
  5
201
  8
LGR
 10
1277.264504963822
 20
1800.987699633704
 30
0.0
  0
SEQEND
  5
DF6
  8
LGR
  0
POLYLINE
  5
7C
  8
LGR
 66
     1
 10
0.0
 20
0.0
 30
0.0
  0
VERTEX
  5
202
  8
LGR
 10
1277.264504963822
 20
1668.63588319011
 30
0.0
 42
0.358922949456606
  0
VERTEX
  5
203
  8
LGR
 10
1257.633500861334
 20
1684.811791411907
 30
0.0
  0
SEQEND
  5
DF7
  8
LGR
  0
POLYLINE
  5
7D
  8
LGR
 66
     1
 10
0.0
 20
0.0
 30
0.0
  0
VERTEX
  5
204
  8
LGR
 10
1193.379830651392
 20
1195.851149033781
 30
0.0
  0
VERTEX
  5
205
  8
LGR
 10
1193.379830651392
 20
1180.851149033781
 30
0.0
  0
SEQEND
  5
DF8
  8
LGR
  0
POLYLINE
  5
7E
  8
LGR
 66
     1
 10
0.0
 20
0.0
 30
0.0
  0
VERTEX
  5
206
  8
LGR
 10
2042.679830651394
 20
1195.851149033781
 30
0.0
  0
VERTEX
  5
207
  8
LGR
 10
2042.679830651394
 20
1180.851149033781
 30
0.0
  0
SEQEND
  5
DF9
  8
LGR
  0
POLYLINE
  5
7F
  8
LGR
 66
     1
 10
0.0
 20
0.0
 30
0.0
  0
VERTEX
  5
208
  8
LGR
 10
1225.829830651392
 20
1195.851149033781
 30
0.0
  0
VERTEX
  5
209
  8
LGR
 10
1225.829830651392
 20
1180.851149033781
 30
0.0
  0
SEQEND
  5
DFA
  8
LGR
  0
POLYLINE
  5
80
  8
LGR
 66
     1
 10
0.0
 20
0.0
 30
0.0
  0
VERTEX
  5
20A
  8
LGR
 10
1260.929830651392
 20
1195.851149033781
 30
0.0
  0
VERTEX
  5
20B
  8
LGR
 10
1260.929830651392
 20
1180.851149033781
 30
0.0
  0
SEQEND
  5
DFB
  8
LGR
  0
POLYLINE
  5
81
  8
LGR
 66
     1
 10
0.0
 20
0.0
 30
0.0
  0
VERTEX
  5
20C
  8
LGR
 10
1975.129830651393
 20
1195.851149033781
 30
0.0
  0
VERTEX
  5
20D
  8
LGR
 10
1975.129830651393
 20
1180.851149033781
 30
0.0
  0
SEQEND
  5
DFC
  8
LGR
  0
POLYLINE
  5
82
  8
LGR
 66
     1
 10
0.0
 20
0.0
 30
0.0
  0
VERTEX
  5
20E
  8
LGR
 10
2010.229830651394
 20
1195.851149033781
 30
0.0
  0
VERTEX
  5
20F
  8
LGR
 10
2010.229830651394
 20
1180.851149033781
 30
0.0
  0
SEQEND
  5
DFD
  8
LGR
  0
POLYLINE
  5
83
  8
LGR
 66
     1
 10
0.0
 20
0.0
 30
0.0
  0
VERTEX
  5
210
  8
LGR
 10
1193.379830651392
 20
1180.851149033781
 30
0.0
  0
VERTEX
  5
211
  8
LGR
 10
2042.679830651394
 20
1180.851149033781
 30
0.0
  0
SEQEND
  5
DFE
  8
LGR
  0
POLYLINE
  5
84
  8
LGR
 66
     1
 10
0.0
 20
0.0
 30
0.0
  0
VERTEX
  5
212
  8
LGR
 10
1193.379830651392
 20
1195.851149033781
 30
0.0
  0
VERTEX
  5
213
  8
LGR
 10
2042.679830651394
 20
1195.851149033781
 30
0.0
  0
SEQEND
  5
DFF
  8
LGR
  0
POLYLINE
  5
85
  8
LGR
 66
     1
 10
0.0
 20
0.0
 30
0.0
  0
VERTEX
  5
214
  8
LGR
 10
1193.379830651392
 20
1195.851149033781
 30
0.0
  0
VERTEX
  5
215
  8
LGR
 10
2042.679830651394
 20
1195.851149033781
 30
0.0
  0
SEQEND
  5
E00
  8
LGR
  0
POLYLINE
  5
86
  8
LGR
 66
     1
 10
0.0
 20
0.0
 30
0.0
  0
VERTEX
  5
216
  8
LGR
 10
718.2007926997283
 20
1781.680082037821
 30
0.0
 42
0.7959923169522122
  0
VERTEX
  5
217
  8
LGR
 10
148.8843886997051
 20
1781.680082037821
 30
0.0
  0
SEQEND
  5
E01
  8
LGR
  0
POLYLINE
  5
87
  8
LGR
 66
     1
 10
0.0
 20
0.0
 30
0.0
 70
     1
  0
VERTEX
  5
218
  8
LGR
 10
116.0425906997157
 20
1732.06582378726
 30
0.0
 42
0.4142135623730951
  0
VERTEX
  5
219
  8
LGR
 10
100.1425906997156
 20
1716.16582378726
 30
0.0
 42
0.4142135623730951
  0
VERTEX
  5
21A
  8
LGR
 10
116.0425906997157
 20
1700.26582378726
 30
0.0
 42
0.4142135623730951
  0
VERTEX
  5
21B
  8
LGR
 10
131.9425906997158
 20
1716.16582378726
 30
0.0
 42
0.4142135623730951
  0
SEQEND
  5
E02
  8
LGR
  0
POLYLINE
  5
88
  8
LGR
 66
     1
 10
0.0
 20
0.0
 30
0.0
 70
     1
  0
VERTEX
  5
21C
  8
LGR
 10
751.0425906997175
 20
1732.06582378726
 30
0.0
 42
0.4142135623730951
  0
VERTEX
  5
21D
  8
LGR
 10
735.1425906997174
 20
1716.16582378726
 30
0.0
 42
0.4142135623730951
  0
VERTEX
  5
21E
  8
LGR
 10
751.0425906997175
 20
1700.26582378726
 30
0.0
 42
0.4142135623730951
  0
VERTEX
  5
21F
  8
LGR
 10
766.9425906997176
 20
1716.16582378726
 30
0.0
 42
0.4142135623730951
  0
SEQEND
  5
E03
  8
LGR
  0
POLYLINE
  5
89
  8
LGR
 66
     1
 10
0.0
 20
0.0
 30
0.0
  0
VERTEX
  5
220
  8
LGR
 10
747.1055828257017
 20
1666.321065095899
 30
0.0
 42
0.4374929441315689
  0
VERTEX
  5
221
  8
LGR
 10
801.0425906997175
 20
1716.16582378726
 30
0.0
 42
0.4374929441315689
  0
VERTEX
  5
222
  8
LGR
 10
747.1055828257017
 20
1766.01058247862
 30
0.0
  0
SEQEND
  5
E04
  8
LGR
  0
POLYLINE
  5
8A
  8
LGR
 66
     1
 10
0.0
 20
0.0
 30
0.0
  0
VERTEX
  5
223
  8
LGR
 10
751.0425906997175
 20
1766.16582378726
 30
0.0
  0
VERTEX
  5
224
  8
LGR
 10
737.6912550071579
 20
1766.16582378726
 30
0.0
  0
SEQEND
  5
E05
  8
LGR
  0
POLYLINE
  5
8B
  8
LGR
 66
     1
 10
0.0
 20
0.0
 30
0.0
  0
VERTEX
  5
225
  8
LGR
 10
751.0425906997175
 20
1666.16582378726
 30
0.0
  0
VERTEX
  5
226
  8
LGR
 10
737.6912550071579
 20
1666.16582378726
 30
0.0
  0
SEQEND
  5
E06
  8
LGR
  0
POLYLINE
  5
8C
  8
LGR
 66
     1
 10
0.0
 20
0.0
 30
0.0
  0
VERTEX
  5
227
  8
LGR
 10
119.9795985737314
 20
1766.01058247862
 30
0.0
 42
0.4374929441315731
  0
VERTEX
  5
228
  8
LGR
 10
66.04259069971567
 20
1716.16582378726
 30
0.0
 42
0.4374929441315731
  0
VERTEX
  5
229
  8
LGR
 10
119.9795985737314
 20
1666.321065095899
 30
0.0
  0
SEQEND
  5
E07
  8
LGR
  0
POLYLINE
  5
8D
  8
LGR
 66
     1
 10
0.0
 20
0.0
 30
0.0
  0
VERTEX
  5
22A
  8
LGR
 10
116.0425906997157
 20
1666.16582378726
 30
0.0
  0
VERTEX
  5
22B
  8
LGR
 10
129.3939263922753
 20
1666.16582378726
 30
0.0
  0
SEQEND
  5
E08
  8
LGR
  0
POLYLINE
  5
8E
  8
LGR
 66
     1
 10
0.0
 20
0.0
 30
0.0
  0
VERTEX
  5
22C
  8
LGR
 10
116.0425906997157
 20
1766.16582378726
 30
0.0
  0
VERTEX
  5
22D
  8
LGR
 10
129.3939263922753
 20
1766.16582378726
 30
0.0
  0
SEQEND
  5
E09
  8
LGR
  0
POLYLINE
  5
8F
  8
LGR
 66
     1
 10
0.0
 20
0.0
 30
0.0
  0
VERTEX
  5
22E
  8
LGR
 10
148.8843886997051
 20
1650.651565536699
 30
0.0
 42
0.7959923169522123
  0
VERTEX
  5
22F
  8
LGR
 10
718.200792699728
 20
1650.651565536699
 30
0.0
  0
SEQEND
  5
E0A
  8
LGR
  0
POLYLINE
  5
90
  8
LGR
 66
     1
 10
0.0
 20
0.0
 30
0.0
  0
VERTEX
  5
230
  8
LGR
 10
129.3939263922753
 20
1766.16582378726
 30
0.0
 42
0.3494067631790768
  0
VERTEX
  5
231
  8
LGR
 10
148.8843886997051
 20
1781.680082037821
 30
0.0
  0
SEQEND
  5
E0B
  8
LGR
  0
POLYLINE
  5
91
  8
LGR
 66
     1
 10
0.0
 20
0.0
 30
0.0
  0
VERTEX
  5
232
  8
LGR
 10
148.8843886997051
 20
1650.651565536699
 30
0.0
 42
0.3494067631790768
  0
VERTEX
  5
233
  8
LGR
 10
129.3939263922753
 20
1666.16582378726
 30
0.0
  0
SEQEND
  5
E0C
  8
LGR
  0
POLYLINE
  5
92
  8
LGR
 66
     1
 10
0.0
 20
0.0
 30
0.0
  0
VERTEX
  5
234
  8
LGR
 10
718.2007926997283
 20
1781.680082037821
 30
0.0
 42
0.3494067631790849
  0
VERTEX
  5
235
  8
LGR
 10
737.6912550071579
 20
1766.16582378726
 30
0.0
  0
SEQEND
  5
E0D
  8
LGR
  0
POLYLINE
  5
93
  8
LGR
 66
     1
 10
0.0
 20
0.0
 30
0.0
  0
VERTEX
  5
236
  8
LGR
 10
737.6912550071579
 20
1666.16582378726
 30
0.0
 42
0.349406763179085
  0
VERTEX
  5
237
  8
LGR
 10
718.2007926997283
 20
1650.651565536699
 30
0.0
  0
SEQEND
  5
E0E
  8
LGR
  0
POLYLINE
  5
94
  8
LGR
 66
     1
 10
0.0
 20
0.0
 30
0.0
  0
VERTEX
  5
238
  8
LGR
 10
66.04259069971567
 20
1208.599121151992
 30
0.0
  0
VERTEX
  5
239
  8
LGR
 10
66.04259069971567
 20
1193.599121151992
 30
0.0
  0
SEQEND
  5
E0F
  8
LGR
  0
POLYLINE
  5
95
  8
LGR
 66
     1
 10
0.0
 20
0.0
 30
0.0
  0
VERTEX
  5
23A
  8
LGR
 10
100.1425906997156
 20
1208.599121151992
 30
0.0
  0
VERTEX
  5
23B
  8
LGR
 10
100.1425906997156
 20
1193.599121151992
 30
0.0
  0
SEQEND
  5
E10
  8
LGR
  0
POLYLINE
  5
96
  8
LGR
 66
     1
 10
0.0
 20
0.0
 30
0.0
  0
VERTEX
  5
23C
  8
LGR
 10
766.9425906997174
 20
1208.599121151992
 30
0.0
  0
VERTEX
  5
23D
  8
LGR
 10
766.9425906997174
 20
1193.599121151992
 30
0.0
  0
SEQEND
  5
E11
  8
LGR
  0
POLYLINE
  5
97
  8
LGR
 66
     1
 10
0.0
 20
0.0
 30
0.0
  0
VERTEX
  5
23E
  8
LGR
 10
801.0425906997173
 20
1208.599121151992
 30
0.0
  0
VERTEX
  5
23F
  8
LGR
 10
801.0425906997173
 20
1193.599121151992
 30
0.0
  0
SEQEND
  5
E12
  8
LGR
  0
POLYLINE
  5
98
  8
LGR
 66
     1
 10
0.0
 20
0.0
 30
0.0
  0
VERTEX
  5
240
  8
LGR
 10
66.04259069971567
 20
1208.599121151992
 30
0.0
  0
VERTEX
  5
241
  8
LGR
 10
801.0425906997175
 20
1208.599121151992
 30
0.0
  0
SEQEND
  5
E13
  8
LGR
  0
POLYLINE
  5
99
  8
LGR
 66
     1
 10
0.0
 20
0.0
 30
0.0
  0
VERTEX
  5
242
  8
LGR
 10
66.04259069971567
 20
1193.599121151992
 30
0.0
  0
VERTEX
  5
243
  8
LGR
 10
801.0425906997175
 20
1193.599121151992
 30
0.0
  0
SEQEND
  5
E14
  8
LGR
  0
POLYLINE
  5
9A
  8
LGR
 66
     1
 10
0.0
 20
0.0
 30
0.0
  0
VERTEX
  5
244
  8
LGR
 10
131.9425906997158
 20
1208.599121151992
 30
0.0
  0
VERTEX
  5
245
  8
LGR
 10
131.9425906997158
 20
1193.599121151992
 30
0.0
  0
SEQEND
  5
E15
  8
LGR
  0
POLYLINE
  5
9B
  8
LGR
 66
     1
 10
0.0
 20
0.0
 30
0.0
  0
VERTEX
  5
246
  8
LGR
 10
735.1425906997174
 20
1208.599121151992
 30
0.0
  0
VERTEX
  5
247
  8
LGR
 10
735.1425906997174
 20
1193.599121151992
 30
0.0
  0
SEQEND
  5
E16
  8
LGR
  0
POLYLINE
  5
9D
  8
LPU
 66
     1
 10
0.0
 20
0.0
 30
0.0
  0
VERTEX
  5
248
  8
LPU
 10
1992.679830651394
 20
1734.811791411907
 30
0.0
  0
VERTEX
  5
249
  8
LPU
 10
1992.672435381146
 20
1737.165771298603
 30
0.0
  0
VERTEX
  5
24A
  8
LPU
 10
1992.650249862354
 20
1739.519658254205
 30
0.0
  0
VERTEX
  5
24B
  8
LPU
 10
1992.613274970864
 20
1741.873359351285
 30
0.0
  0
VERTEX
  5
24C
  8
LPU
 10
1992.561512166382
 20
1744.226781669753
 30
0.0
  0
VERTEX
  5
24D
  8
LPU
 10
1992.494963492415
 20
1746.579832300528
 30
0.0
  0
VERTEX
  5
24E
  8
LPU
 10
1992.41363157619
 20
1748.932418349198
 30
0.0
  0
VERTEX
  5
24F
  8
LPU
 10
1992.317519628553
 20
1751.284446939695
 30
0.0
  0
VERTEX
  5
250
  8
LPU
 10
1992.206631443838
 20
1753.635825217958
 30
0.0
  0
VERTEX
  5
251
  8
LPU
 10
1992.080971399721
 20
1755.986460355597
 30
0.0
  0
VERTEX
  5
252
  8
LPU
 10
1991.940544457046
 20
1758.336259553564
 30
0.0
  0
VERTEX
  5
253
  8
LPU
 10
1991.785356159627
 20
1760.685130045809
 30
0.0
  0
VERTEX
  5
254
  8
LPU
 10
1991.615412634033
 20
1763.032979102947
 30
0.0
  0
VERTEX
  5
255
  8
LPU
 10
1991.430720589343
 20
1765.379714035917
 30
0.0
  0
VERTEX
  5
256
  8
LPU
 10
1991.231287316883
 20
1767.725242199643
 30
0.0
  0
VERTEX
  5
257
  8
LPU
 10
1991.017120689938
 20
1770.069470996688
 30
0.0
  0
VERTEX
  5
258
  8
LPU
 10
1990.788229163438
 20
1772.412307880915
 30
0.0
  0
VERTEX
  5
259
  8
LPU
 10
1990.544621773629
 20
1774.753660361133
 30
0.0
  0
VERTEX
  5
25A
  8
LPU
 10
1990.286308137715
 20
1777.093436004757
 30
0.0
  0
VERTEX
  5
25B
  8
LPU
 10
1990.013298453474
 20
1779.43154244145
 30
0.0
  0
VERTEX
  5
25C
  8
LPU
 10
1989.725603498863
 20
1781.767887366773
 30
0.0
  0
VERTEX
  5
25D
  8
LPU
 10
1989.423234631584
 20
1784.10237854583
 30
0.0
  0
VERTEX
  5
25E
  8
LPU
 10
1989.106203788644
 20
1786.434923816906
 30
0.0
  0
VERTEX
  5
25F
  8
LPU
 10
1988.774523485877
 20
1788.765431095108
 30
0.0
  0
VERTEX
  5
260
  8
LPU
 10
1988.428206817453
 20
1791.093808375998
 30
0.0
  0
VERTEX
  5
261
  8
LPU
 10
1988.067267455362
 20
1793.419963739229
 30
0.0
  0
VERTEX
  5
262
  8
LPU
 10
1987.691719648872
 20
1795.74380535217
 30
0.0
  0
VERTEX
  5
263
  8
LPU
 10
1987.301578223966
 20
1798.065241473533
 30
0.0
  0
VERTEX
  5
264
  8
LPU
 10
1986.89685858276
 20
1800.384180456994
 30
0.0
  0
VERTEX
  5
265
  8
LPU
 10
1986.477576702894
 20
1802.700530754814
 30
0.0
  0
VERTEX
  5
266
  8
LPU
 10
1986.043749136897
 20
1805.014200921448
 30
0.0
  0
VERTEX
  5
267
  8
LPU
 10
1985.595393011539
 20
1807.325099617162
 30
0.0
  0
VERTEX
  5
268
  8
LPU
 10
1985.132526027152
 20
1809.633135611629
 30
0.0
  0
VERTEX
  5
269
  8
LPU
 10
1984.655166456931
 20
1811.938217787543
 30
0.0
  0
VERTEX
  5
26A
  8
LPU
 10
1984.163333146217
 20
1814.240255144204
 30
0.0
  0
VERTEX
  5
26B
  8
LPU
 10
1983.657045511745
 20
1816.539156801121
 30
0.0
  0
VERTEX
  5
26C
  8
LPU
 10
1983.136323540885
 20
1818.834832001592
 30
0.0
  0
VERTEX
  5
26D
  8
LPU
 10
1982.601187790847
 20
1821.127190116292
 30
0.0
  0
VERTEX
  5
26E
  8
LPU
 10
1982.051659387876
 20
1823.416140646845
 30
0.0
  0
VERTEX
  5
26F
  8
LPU
 10
1981.487760026411
 20
1825.701593229406
 30
0.0
  0
VERTEX
  5
270
  8
LPU
 10
1981.451619522775
 20
1825.844209754957
 30
0.0
  0
SEQEND
  5
E17
  8
LPU
  0
POLYLINE
  5
9E
  8
LPU
 66
     1
 10
0.0
 20
0.0
 30
0.0
  0
VERTEX
  5
271
  8
LPU
 10
1976.546753035265
 20
1843.566712161889
 30
0.0
  0
VERTEX
  5
272
  8
LPU
 10
1976.462000767909
 20
1843.848491314119
 30
0.0
  0
VERTEX
  5
273
  8
LPU
 10
1975.769832340723
 20
1846.098419949743
 30
0.0
  0
VERTEX
  5
274
  8
LPU
 10
1975.063540950819
 20
1848.343955179825
 30
0.0
  0
VERTEX
  5
275
  8
LPU
 10
1974.343154481373
 20
1850.585008354481
 30
0.0
  0
VERTEX
  5
276
  8
LPU
 10
1973.608701372007
 20
1852.821491000767
 30
0.0
  0
VERTEX
  5
277
  8
LPU
 10
1972.860210617674
 20
1855.053314826178
 30
0.0
  0
VERTEX
  5
278
  8
LPU
 10
1972.097711767507
 20
1857.280391722131
 30
0.0
  0
VERTEX
  5
279
  8
LPU
 10
1971.321234923655
 20
1859.502633767444
 30
0.0
  0
VERTEX
  5
27A
  8
LPU
 10
1970.777818297457
 20
1861.027040899191
 30
0.0
  0
SEQEND
  5
E18
  8
LPU
  0
POLYLINE
  5
9F
  8
LPU
 66
     1
 10
0.0
 20
0.0
 30
0.0
  0
VERTEX
  5
27B
  8
LPU
 10
1964.159589417827
 20
1878.183431833891
 30
0.0
  0
VERTEX
  5
27C
  8
LPU
 10
1963.709172643732
 20
1879.270834118633
 30
0.0
  0
VERTEX
  5
27D
  8
LPU
 10
1962.794692267016
 20
1881.439935692465
 30
0.0
  0
VERTEX
  5
27E
  8
LPU
 10
1961.866601163897
 20
1883.603248638227
 30
0.0
  0
VERTEX
  5
27F
  8
LPU
 10
1960.92493597382
 20
1885.76068755203
 30
0.0
  0
VERTEX
  5
280
  8
LPU
 10
1959.969733872115
 20
1887.91216726188
 30
0.0
  0
VERTEX
  5
281
  8
LPU
 10
1959.001032568527
 20
1890.057602831041
 30
0.0
  0
VERTEX
  5
282
  8
LPU
 10
1958.018870305722
 20
1892.19690956139
 30
0.0
  0
VERTEX
  5
283
  8
LPU
 10
1957.023285857787
 20
1894.330002996761
 30
0.0
  0
VERTEX
  5
284
  8
LPU
 10
1956.01431852869
 20
1896.456798926278
 30
0.0
  0
VERTEX
  5
285
  8
LPU
 10
1954.992008150734
 20
1898.577213387679
 30
0.0
  0
VERTEX
  5
286
  8
LPU
 10
1953.956395082982
 20
1900.691162670631
 30
0.0
  0
VERTEX
  5
287
  8
LPU
 10
1952.907520209664
 20
1902.798563320037
 30
0.0
  0
VERTEX
  5
288
  8
LPU
 10
1951.845424938565
 20
1904.899332139328
 30
0.0
  0
VERTEX
  5
289
  8
LPU
 10
1950.770151199387
 20
1906.993386193747
 30
0.0
  0
VERTEX
  5
28A
  8
LPU
 10
1949.681741442097
 20
1909.080642813626
 30
0.0
  0
VERTEX
  5
28B
  8
LPU
 10
1948.580238635248
 20
1911.161019597648
 30
0.0
  0
VERTEX
  5
28C
  8
LPU
 10
1947.465686264285
 20
1913.2344344161
 30
0.0
  0
VERTEX
  5
28D
  8
LPU
 10
1946.338128329827
 20
1915.300805414114
 30
0.0
  0
VERTEX
  5
28E
  8
LPU
 10
1945.19760934593
 20
1917.360051014902
 30
0.0
  0
VERTEX
  5
28F
  8
LPU
 10
1944.044174338331
 20
1919.412089922974
 30
0.0
  0
VERTEX
  5
290
  8
LPU
 10
1942.877868842669
 20
1921.456841127347
 30
0.0
  0
VERTEX
  5
291
  8
LPU
 10
1941.698738902689
 20
1923.494223904744
 30
0.0
  0
VERTEX
  5
292
  8
LPU
 10
1940.50683106842
 20
1925.524157822783
 30
0.0
  0
VERTEX
  5
293
  8
LPU
 10
1939.302192394345
 20
1927.546562743148
 30
0.0
  0
VERTEX
  5
294
  8
LPU
 10
1938.084870437534
 20
1929.561358824755
 30
0.0
  0
VERTEX
  5
295
  8
LPU
 10
1936.854913255774
 20
1931.568466526906
 30
0.0
  0
VERTEX
  5
296
  8
LPU
 10
1935.612369405669
 20
1933.567806612424
 30
0.0
  0
VERTEX
  5
297
  8
LPU
 10
1934.357287940722
 20
1935.559300150788
 30
0.0
  0
VERTEX
  5
298
  8
LPU
 10
1933.089718409401
 20
1937.542868521241
 30
0.0
  0
VERTEX
  5
299
  8
LPU
 10
1931.809710853181
 20
1939.518433415901
 30
0.0
  0
VERTEX
  5
29A
  8
LPU
 10
1930.517315804567
 20
1941.485916842848
 30
0.0
  0
VERTEX
  5
29B
  8
LPU
 10
1929.212584285104
 20
1943.445241129206
 30
0.0
  0
VERTEX
  5
29C
  8
LPU
 10
1927.895567803357
 20
1945.396328924207
 30
0.0
  0
VERTEX
  5
29D
  8
LPU
 10
1926.566318352883
 20
1947.339103202246
 30
0.0
  0
VERTEX
  5
29E
  8
LPU
 10
1925.224888410173
 20
1949.27348726592
 30
0.0
  0
VERTEX
  5
29F
  8
LPU
 10
1923.871330932585
 20
1951.199404749059
 30
0.0
  0
VERTEX
  5
2A0
  8
LPU
 10
1922.505699356251
 20
1953.116779619739
 30
0.0
  0
VERTEX
  5
2A1
  8
LPU
 10
1921.128047593966
 20
1955.025536183282
 30
0.0
  0
VERTEX
  5
2A2
  8
LPU
 10
1919.738430033064
 20
1956.925599085248
 30
0.0
  0
VERTEX
  5
2A3
  8
LPU
 10
1918.950070251929
 20
1957.989452089148
 30
0.0
  0
SEQEND
  5
E19
  8
LPU
  0
POLYLINE
  5
A0
  8
LPU
 66
     1
 10
0.0
 20
0.0
 30
0.0
  0
VERTEX
  5
2A4
  8
LPU
 10
1907.636857743284
 20
1972.48613504713
 30
0.0
  0
VERTEX
  5
2A5
  8
LPU
 10
1906.702617057342
 20
1973.622689171253
 30
0.0
  0
VERTEX
  5
2A6
  8
LPU
 10
1905.196435652515
 20
1975.431747924514
 30
0.0
  0
VERTEX
  5
2A7
  8
LPU
 10
1903.678917401831
 20
1977.231307413899
 30
0.0
  0
VERTEX
  5
2A8
  8
LPU
 10
1902.150122214312
 20
1979.021296595881
 30
0.0
  0
VERTEX
  5
2A9
  8
LPU
 10
1900.610110444173
 20
1980.801644804752
 30
0.0
  0
VERTEX
  5
2AA
  8
LPU
 10
1899.058942888444
 20
1982.572281755413
 30
0.0
  0
VERTEX
  5
2AB
  8
LPU
 10
1897.496680784562
 20
1984.333137546149
 30
0.0
  0
VERTEX
  5
2AC
  8
LPU
 10
1895.923385807961
 20
1986.084142661389
 30
0.0
  0
VERTEX
  5
2AD
  8
LPU
 10
1895.626335982025
 20
1986.410596157586
 30
0.0
  0
SEQEND
  5
E1A
  8
LPU
  0
POLYLINE
  5
A1
  8
LPU
 66
     1
 10
0.0
 20
0.0
 30
0.0
  0
VERTEX
  5
2AE
  8
LPU
 10
1882.947386222933
 20
1999.729346983445
 30
0.0
  0
VERTEX
  5
2AF
  8
LPU
 10
1881.277641836531
 20
2001.388632878365
 30
0.0
  0
VERTEX
  5
2B0
  8
LPU
 10
1879.597504877297
 20
2003.037394776036
 30
0.0
  0
VERTEX
  5
2B1
  8
LPU
 10
1877.907041674159
 20
2004.675567586161
 30
0.0
  0
VERTEX
  5
2B2
  8
LPU
 10
1876.206318963712
 20
2006.303086636483
 30
0.0
  0
VERTEX
  5
2B3
  8
LPU
 10
1874.495403887575
 20
2007.919887675338
 30
0.0
  0
VERTEX
  5
2B4
  8
LPU
 10
1872.774363989746
 20
2009.525906874188
 30
0.0
  0
VERTEX
  5
2B5
  8
LPU
 10
1871.043267213934
 20
2011.121080830146
 30
0.0
  0
VERTEX
  5
2B6
  8
LPU
 10
1869.302181900874
 20
2012.705346568475
 30
0.0
  0
VERTEX
  5
2B7
  8
LPU
 10
1867.551176785634
 20
2014.278641545076
 30
0.0
  0
VERTEX
  5
2B8
  8
LPU
 10
1865.790320994898
 20
2015.840903648958
 30
0.0
  0
VERTEX
  5
2B9
  8
LPU
 10
1864.019684044237
 20
2017.392071204688
 30
0.0
  0
VERTEX
  5
2BA
  8
LPU
 10
1862.239335835366
 20
2018.932082974826
 30
0.0
  0
VERTEX
  5
2BB
  8
LPU
 10
1860.449346653384
 20
2020.460878162345
 30
0.0
  0
VERTEX
  5
2BC
  8
LPU
 10
1858.649787163999
 20
2021.978396413029
 30
0.0
  0
VERTEX
  5
2BD
  8
LPU
 10
1856.840728410739
 20
2023.484577817856
 30
0.0
  0
VERTEX
  5
2BE
  8
LPU
 10
1855.022241812144
 20
2024.979362915362
 30
0.0
  0
VERTEX
  5
2BF
  8
LPU
 10
1853.194399158953
 20
2026.462692693992
 30
0.0
  0
VERTEX
  5
2C0
  8
LPU
 10
1851.357272611263
 20
2027.934508594425
 30
0.0
  0
VERTEX
  5
2C1
  8
LPU
 10
1849.510934695686
 20
2029.394752511891
 30
0.0
  0
VERTEX
  5
2C2
  8
LPU
 10
1847.65545830248
 20
2030.843366798459
 30
0.0
  0
VERTEX
  5
2C3
  8
LPU
 10
1845.790916682676
 20
2032.280294265318
 30
0.0
  0
VERTEX
  5
2C4
  8
LPU
 10
1843.917383445185
 20
2033.705478185032
 30
0.0
  0
VERTEX
  5
2C5
  8
LPU
 10
1842.034932553891
 20
2035.11886229378
 30
0.0
  0
VERTEX
  5
2C6
  8
LPU
 10
1840.143638324733
 20
2036.520390793578
 30
0.0
  0
VERTEX
  5
2C7
  8
LPU
 10
1838.243575422767
 20
2037.91000835448
 30
0.0
  0
VERTEX
  5
2C8
  8
LPU
 10
1836.334818859224
 20
2039.287660116765
 30
0.0
  0
VERTEX
  5
2C9
  8
LPU
 10
1834.417443988545
 20
2040.653291693099
 30
0.0
  0
VERTEX
  5
2CA
  8
LPU
 10
1832.491526505406
 20
2042.006849170687
 30
0.0
  0
VERTEX
  5
2CB
  8
LPU
 10
1830.557142441731
 20
2043.348279113397
 30
0.0
  0
VERTEX
  5
2CC
  8
LPU
 10
1828.614368163693
 20
2044.677528563871
 30
0.0
  0
VERTEX
  5
2CD
  8
LPU
 10
1826.663280368692
 20
2045.994545045617
 30
0.0
  0
VERTEX
  5
2CE
  8
LPU
 10
1824.703956082333
 20
2047.299276565081
 30
0.0
  0
VERTEX
  5
2CF
  8
LPU
 10
1822.736472655386
 20
2048.591671613694
 30
0.0
  0
VERTEX
  5
2D0
  8
LPU
 10
1820.760907760726
 20
2049.871679169915
 30
0.0
  0
VERTEX
  5
2D1
  8
LPU
 10
1818.777339390273
 20
2051.139248701236
 30
0.0
  0
VERTEX
  5
2D2
  8
LPU
 10
1816.78584585191
 20
2052.394330166183
 30
0.0
  0
VERTEX
  5
2D3
  8
LPU
 10
1814.786505766391
 20
2053.636874016287
 30
0.0
  0
VERTEX
  5
2D4
  8
LPU
 10
1812.779398064241
 20
2054.866831198047
 30
0.0
  0
VERTEX
  5
2D5
  8
LPU
 10
1810.764601982633
 20
2056.084153154858
 30
0.0
  0
VERTEX
  5
2D6
  8
LPU
 10
1810.638201675113
 20
2056.159443071987
 30
0.0
  0
SEQEND
  5
E1B
  8
LPU
  0
POLYLINE
  5
A2
  8
LPU
 66
     1
 10
0.0
 20
0.0
 30
0.0
  0
VERTEX
  5
2D7
  8
LPU
 10
1794.638235689442
 20
2065.22288034939
 30
0.0
  0
VERTEX
  5
2D8
  8
LPU
 10
1794.379058837134
 20
2065.362199395761
 30
0.0
  0
VERTEX
  5
2D9
  8
LPU
 10
1792.298682053112
 20
2066.46370220261
 30
0.0
  0
VERTEX
  5
2DA
  8
LPU
 10
1790.211425433233
 20
2067.552111959901
 30
0.0
  0
VERTEX
  5
2DB
  8
LPU
 10
1788.117371378813
 20
2068.627385699078
 30
0.0
  0
VERTEX
  5
2DC
  8
LPU
 10
1786.016602559523
 20
2069.689480970177
 30
0.0
  0
VERTEX
  5
2DD
  8
LPU
 10
1783.909201910117
 20
2070.738355843495
 30
0.0
  0
VERTEX
  5
2DE
  8
LPU
 10
1781.795252627164
 20
2071.773968911247
 30
0.0
  0
VERTEX
  5
2DF
  8
LPU
 10
1779.674838165764
 20
2072.796279289203
 30
0.0
  0
VERTEX
  5
2E0
  8
LPU
 10
1778.212665964223
 20
2073.489944327956
 30
0.0
  0
SEQEND
  5
E1C
  8
LPU
  0
POLYLINE
  5
A3
  8
LPU
 66
     1
 10
0.0
 20
0.0
 30
0.0
  0
VERTEX
  5
2E1
  8
LPU
 10
1761.401471073379
 20
2080.94155017834
 30
0.0
  0
VERTEX
  5
2E2
  8
LPU
 10
1760.314068788635
 20
2081.391966952436
 30
0.0
  0
VERTEX
  5
2E3
  8
LPU
 10
1758.133647081059
 20
2082.279118108737
 30
0.0
  0
VERTEX
  5
2E4
  8
LPU
 10
1755.947694314706
 20
2083.152551849939
 30
0.0
  0
VERTEX
  5
2E5
  8
LPU
 10
1753.75629678725
 20
2084.012233694375
 30
0.0
  0
VERTEX
  5
2E6
  8
LPU
 10
1751.559541011311
 20
2084.858129703276
 30
0.0
  0
VERTEX
  5
2E7
  8
LPU
 10
1749.357513711047
 20
2085.690206482116
 30
0.0
  0
VERTEX
  5
2E8
  8
LPU
 10
1747.150301818725
 20
2086.50843118193
 30
0.0
  0
VERTEX
  5
2E9
  8
LPU
 10
1744.93799247129
 20
2087.312771500607
 30
0.0
  0
VERTEX
  5
2EA
  8
LPU
 10
1742.720673006929
 20
2088.103195684168
 30
0.0
  0
VERTEX
  5
2EB
  8
LPU
 10
1740.498430961617
 20
2088.87967252802
 30
0.0
  0
VERTEX
  5
2EC
  8
LPU
 10
1738.271354065663
 20
2089.642171378187
 30
0.0
  0
VERTEX
  5
2ED
  8
LPU
 10
1736.039530240252
 20
2090.39066213252
 30
0.0
  0
VERTEX
  5
2EE
  8
LPU
 10
1733.803047593966
 20
2091.125115241885
 30
0.0
  0
VERTEX
  5
2EF
  8
LPU
 10
1731.561994419311
 20
2091.845501711332
 30
0.0
  0
VERTEX
  5
2F0
  8
LPU
 10
1729.316459189228
 20
2092.551793101235
 30
0.0
  0
VERTEX
  5
2F1
  8
LPU
 10
1727.066530553604
 20
2093.243961528421
 30
0.0
  0
VERTEX
  5
2F2
  8
LPU
 10
1724.812297335769
 20
2093.921979667265
 30
0.0
  0
VERTEX
  5
2F3
  8
LPU
 10
1722.553848528989
 20
2094.585820750773
 30
0.0
  0
VERTEX
  5
2F4
  8
LPU
 10
1720.291273292958
 20
2095.235458571633
 30
0.0
  0
VERTEX
  5
2F5
  8
LPU
 10
1718.024660950271
 20
2095.870867483258
 30
0.0
  0
VERTEX
  5
2F6
  8
LPU
 10
1715.754100982902
 20
2096.492022400792
 30
0.0
  0
VERTEX
  5
2F7
  8
LPU
 10
1713.479683028671
 20
2097.098898802102
 30
0.0
  0
VERTEX
  5
2F8
  8
LPU
 10
1711.201496877705
 20
2097.691472728748
 30
0.0
  0
VERTEX
  5
2F9
  8
LPU
 10
1708.919632468891
 20
2098.269720786923
 30
0.0
  0
VERTEX
  5
2FA
  8
LPU
 10
1706.63417988633
 20
2098.833620148388
 30
0.0
  0
VERTEX
  5
2FB
  8
LPU
 10
1704.345229355777
 20
2099.383148551359
 30
0.0
  0
VERTEX
  5
2FC
  8
LPU
 10
1702.052871241078
 20
2099.918284301397
 30
0.0
  0
VERTEX
  5
2FD
  8
LPU
 10
1699.757196040607
 20
2100.439006272257
 30
0.0
  0
VERTEX
  5
2FE
  8
LPU
 10
1697.45829438369
 20
2100.945293906729
 30
0.0
  0
VERTEX
  5
2FF
  8
LPU
 10
1695.156257027028
 20
2101.437127217444
 30
0.0
  0
VERTEX
  5
300
  8
LPU
 10
1692.851174851115
 20
2101.914486787664
 30
0.0
  0
VERTEX
  5
301
  8
LPU
 10
1690.543138856647
 20
2102.377353772051
 30
0.0
  0
VERTEX
  5
302
  8
LPU
 10
1688.232240160934
 20
2102.825709897408
 30
0.0
  0
VERTEX
  5
303
  8
LPU
 10
1685.918569994299
 20
2103.259537463406
 30
0.0
  0
VERTEX
  5
304
  8
LPU
 10
1683.602219696479
 20
2103.678819343272
 30
0.0
  0
VERTEX
  5
305
  8
LPU
 10
1681.283280713018
 20
2104.083538984478
 30
0.0
  0
VERTEX
  5
306
  8
LPU
 10
1678.961844591655
 20
2104.473680409383
 30
0.0
  0
VERTEX
  5
307
  8
LPU
 10
1676.638002978715
 20
2104.849228215873
 30
0.0
  0
VERTEX
  5
308
  8
LPU
 10
1674.311847615484
 20
2105.210167577965
 30
0.0
  0
VERTEX
  5
309
  8
LPU
 10
1673.002135394986
 20
2105.404970703952
 30
0.0
  0
SEQEND
  5
E1D
  8
LPU
  0
POLYLINE
  5
A4
  8
LPU
 66
     1
 10
0.0
 20
0.0
 30
0.0
  0
VERTEX
  5
30A
  8
LPU
 10
1654.751783288817
 20
2107.656024246387
 30
0.0
  0
VERTEX
  5
30B
  8
LPU
 10
1653.287510236174
 20
2107.799081450449
 30
0.0
  0
VERTEX
  5
30C
  8
LPU
 10
1650.943281439128
 20
2108.013248077395
 30
0.0
  0
VERTEX
  5
30D
  8
LPU
 10
1648.597753275402
 20
2108.212681349854
 30
0.0
  0
VERTEX
  5
30E
  8
LPU
 10
1646.251018342432
 20
2108.397373394544
 30
0.0
  0
VERTEX
  5
30F
  8
LPU
 10
1643.903169285294
 20
2108.567316920138
 30
0.0
  0
VERTEX
  5
310
  8
LPU
 10
1641.554298793049
 20
2108.722505217557
 30
0.0
  0
VERTEX
  5
311
  8
LPU
 10
1639.204499595083
 20
2108.862932160233
 30
0.0
  0
VERTEX
  5
312
  8
LPU
 10
1636.853864457443
 20
2108.98859220435
 30
0.0
  0
VERTEX
  5
313
  8
LPU
 10
1636.412981030271
 20
2109.009383738983
 30
0.0
  0
SEQEND
  5
E1E
  8
LPU
  0
POLYLINE
  5
A5
  8
LPU
 66
     1
 10
0.0
 20
0.0
 30
0.0
  0
VERTEX
  5
314
  8
LPU
 10
1618.029830651395
 20
2109.461791411905
 30
0.0
  0
VERTEX
  5
315
  8
LPU
 10
1615.675850764695
 20
2109.454396141657
 30
0.0
  0
VERTEX
  5
316
  8
LPU
 10
1613.321963809094
 20
2109.432210622865
 30
0.0
  0
VERTEX
  5
317
  8
LPU
 10
1610.968262712015
 20
2109.395235731376
 30
0.0
  0
VERTEX
  5
318
  8
LPU
 10
1608.614840393546
 20
2109.343472926894
 30
0.0
  0
VERTEX
  5
319
  8
LPU
 10
1606.261789762772
 20
2109.276924252927
 30
0.0
  0
VERTEX
  5
31A
  8
LPU
 10
1603.909203714101
 20
2109.195592336702
 30
0.0
  0
VERTEX
  5
31B
  8
LPU
 10
1601.557175123604
 20
2109.099480389064
 30
0.0
  0
VERTEX
  5
31C
  8
LPU
 10
1599.205796845341
 20
2108.98859220435
 30
0.0
  0
VERTEX
  5
31D
  8
LPU
 10
1596.855161707702
 20
2108.862932160233
 30
0.0
  0
VERTEX
  5
31E
  8
LPU
 10
1594.505362509735
 20
2108.722505217557
 30
0.0
  0
VERTEX
  5
31F
  8
LPU
 10
1592.15649201749
 20
2108.567316920138
 30
0.0
  0
VERTEX
  5
320
  8
LPU
 10
1589.808642960352
 20
2108.397373394544
 30
0.0
  0
VERTEX
  5
321
  8
LPU
 10
1587.461908027382
 20
2108.212681349854
 30
0.0
  0
VERTEX
  5
322
  8
LPU
 10
1585.116379863656
 20
2108.013248077395
 30
0.0
  0
VERTEX
  5
323
  8
LPU
 10
1582.772151066611
 20
2107.799081450449
 30
0.0
  0
VERTEX
  5
324
  8
LPU
 10
1580.429314182385
 20
2107.570189923949
 30
0.0
  0
VERTEX
  5
325
  8
LPU
 10
1578.087961702166
 20
2107.32658253414
 30
0.0
  0
VERTEX
  5
326
  8
LPU
 10
1575.748186058542
 20
2107.068268898226
 30
0.0
  0
VERTEX
  5
327
  8
LPU
 10
1573.410079621849
 20
2106.795259213985
 30
0.0
  0
VERTEX
  5
328
  8
LPU
 10
1571.073734696526
 20
2106.507564259375
 30
0.0
  0
VERTEX
  5
329
  8
LPU
 10
1568.739243517469
 20
2106.205195392095
 30
0.0
  0
VERTEX
  5
32A
  8
LPU
 10
1566.406698246393
 20
2105.888164549156
 30
0.0
  0
VERTEX
  5
32B
  8
LPU
 10
1564.076190968191
 20
2105.556484246388
 30
0.0
  0
VERTEX
  5
32C
  8
LPU
 10
1561.747813687301
 20
2105.210167577965
 30
0.0
  0
VERTEX
  5
32D
  8
LPU
 10
1559.42165832407
 20
2104.849228215873
 30
0.0
  0
VERTEX
  5
32E
  8
LPU
 10
1557.097816711129
 20
2104.473680409383
 30
0.0
  0
VERTEX
  5
32F
  8
LPU
 10
1554.776380589767
 20
2104.083538984477
 30
0.0
  0
VERTEX
  5
330
  8
LPU
 10
1552.457441606305
 20
2103.678819343272
 30
0.0
  0
VERTEX
  5
331
  8
LPU
 10
1550.141091308485
 20
2103.259537463406
 30
0.0
  0
VERTEX
  5
332
  8
LPU
 10
1547.827421141851
 20
2102.825709897408
 30
0.0
  0
VERTEX
  5
333
  8
LPU
 10
1545.516522446138
 20
2102.37735377205
 30
0.0
  0
VERTEX
  5
334
  8
LPU
 10
1543.20848645167
 20
2101.914486787663
 30
0.0
  0
VERTEX
  5
335
  8
LPU
 10
1540.903404275756
 20
2101.437127217443
 30
0.0
  0
VERTEX
  5
336
  8
LPU
 10
1538.601366919095
 20
2100.945293906729
 30
0.0
  0
VERTEX
  5
337
  8
LPU
 10
1536.302465262178
 20
2100.439006272257
 30
0.0
  0
VERTEX
  5
338
  8
LPU
 10
1534.006790061707
 20
2099.918284301396
 30
0.0
  0
VERTEX
  5
339
  8
LPU
 10
1531.714431947008
 20
2099.383148551359
 30
0.0
  0
VERTEX
  5
33A
  8
LPU
 10
1529.425481416454
 20
2098.833620148388
 30
0.0
  0
VERTEX
  5
33B
  8
LPU
 10
1527.140028833893
 20
2098.269720786923
 30
0.0
  0
VERTEX
  5
33C
  8
LPU
 10
1526.997412308345
 20
2098.233580283288
 30
0.0
  0
SEQEND
  5
E1F
  8
LPU
  0
POLYLINE
  5
A6
  8
LPU
 66
     1
 10
0.0
 20
0.0
 30
0.0
  0
VERTEX
  5
33D
  8
LPU
 10
1509.274909901412
 20
2093.328713795777
 30
0.0
  0
VERTEX
  5
33E
  8
LPU
 10
1508.993130749181
 20
2093.243961528421
 30
0.0
  0
VERTEX
  5
33F
  8
LPU
 10
1506.743202113556
 20
2092.551793101235
 30
0.0
  0
VERTEX
  5
340
  8
LPU
 10
1504.497666883474
 20
2091.845501711331
 30
0.0
  0
VERTEX
  5
341
  8
LPU
 10
1502.256613708818
 20
2091.125115241884
 30
0.0
  0
VERTEX
  5
342
  8
LPU
 10
1500.020131062533
 20
2090.390662132519
 30
0.0
  0
VERTEX
  5
343
  8
LPU
 10
1497.788307237121
 20
2089.642171378187
 30
0.0
  0
VERTEX
  5
344
  8
LPU
 10
1495.561230341169
 20
2088.879672528019
 30
0.0
  0
VERTEX
  5
345
  8
LPU
 10
1493.338988295856
 20
2088.103195684167
 30
0.0
  0
VERTEX
  5
346
  8
LPU
 10
1491.81458116411
 20
2087.55977905797
 30
0.0
  0
SEQEND
  5
E20
  8
LPU
  0
POLYLINE
  5
A7
  8
LPU
 66
     1
 10
0.0
 20
0.0
 30
0.0
  0
VERTEX
  5
347
  8
LPU
 10
1474.658190229411
 20
2080.941550178341
 30
0.0
  0
VERTEX
  5
348
  8
LPU
 10
1473.570787944666
 20
2080.491133404244
 30
0.0
  0
VERTEX
  5
349
  8
LPU
 10
1471.401686370835
 20
2079.576653027529
 30
0.0
  0
VERTEX
  5
34A
  8
LPU
 10
1469.238373425072
 20
2078.648561924409
 30
0.0
  0
VERTEX
  5
34B
  8
LPU
 10
1467.080934511269
 20
2077.706896734332
 30
0.0
  0
VERTEX
  5
34C
  8
LPU
 10
1464.92945480142
 20
2076.751694632628
 30
0.0
  0
VERTEX
  5
34D
  8
LPU
 10
1462.784019232259
 20
2075.782993329039
 30
0.0
  0
VERTEX
  5
34E
  8
LPU
 10
1460.644712501909
 20
2074.800831066234
 30
0.0
  0
VERTEX
  5
34F
  8
LPU
 10
1458.511619066538
 20
2073.8052466183
 30
0.0
  0
VERTEX
  5
350
  8
LPU
 10
1456.384823137022
 20
2072.796279289202
 30
0.0
  0
VERTEX
  5
351
  8
LPU
 10
1454.264408675621
 20
2071.773968911246
 30
0.0
  0
VERTEX
  5
352
  8
LPU
 10
1452.150459392668
 20
2070.738355843494
 30
0.0
  0
VERTEX
  5
353
  8
LPU
 10
1450.043058743262
 20
2069.689480970176
 30
0.0
  0
VERTEX
  5
354
  8
LPU
 10
1447.942289923972
 20
2068.627385699077
 30
0.0
  0
VERTEX
  5
355
  8
LPU
 10
1445.848235869552
 20
2067.5521119599
 30
0.0
  0
VERTEX
  5
356
  8
LPU
 10
1443.760979249673
 20
2066.46370220261
 30
0.0
  0
VERTEX
  5
357
  8
LPU
 10
1441.680602465651
 20
2065.36219939576
 30
0.0
  0
VERTEX
  5
358
  8
LPU
 10
1439.607187647199
 20
2064.247647024798
 30
0.0
  0
VERTEX
  5
359
  8
LPU
 10
1437.540816649185
 20
2063.120089090339
 30
0.0
  0
VERTEX
  5
35A
  8
LPU
 10
1435.481571048397
 20
2061.979570106442
 30
0.0
  0
VERTEX
  5
35B
  8
LPU
 10
1433.429532140326
 20
2060.826135098843
 30
0.0
  0
VERTEX
  5
35C
  8
LPU
 10
1431.384780935953
 20
2059.659829603182
 30
0.0
  0
VERTEX
  5
35D
  8
LPU
 10
1429.347398158555
 20
2058.480699663201
 30
0.0
  0
VERTEX
  5
35E
  8
LPU
 10
1427.317464240517
 20
2057.288791828933
 30
0.0
  0
VERTEX
  5
35F
  8
LPU
 10
1425.295059320152
 20
2056.084153154857
 30
0.0
  0
VERTEX
  5
360
  8
LPU
 10
1423.280263238544
 20
2054.866831198046
 30
0.0
  0
VERTEX
  5
361
  8
LPU
 10
1421.273155536393
 20
2053.636874016287
 30
0.0
  0
VERTEX
  5
362
  8
LPU
 10
1419.273815450875
 20
2052.394330166182
 30
0.0
  0
VERTEX
  5
363
  8
LPU
 10
1417.282321912512
 20
2051.139248701235
 30
0.0
  0
VERTEX
  5
364
  8
LPU
 10
1415.298753542059
 20
2049.871679169914
 30
0.0
  0
VERTEX
  5
365
  8
LPU
 10
1413.323188647399
 20
2048.591671613694
 30
0.0
  0
VERTEX
  5
366
  8
LPU
 10
1411.355705220452
 20
2047.29927656508
 30
0.0
  0
VERTEX
  5
367
  8
LPU
 10
1409.396380934093
 20
2045.994545045617
 30
0.0
  0
VERTEX
  5
368
  8
LPU
 10
1407.445293139092
 20
2044.67752856387
 30
0.0
  0
VERTEX
  5
369
  8
LPU
 10
1405.502518861054
 20
2043.348279113396
 30
0.0
  0
VERTEX
  5
36A
  8
LPU
 10
1403.56813479738
 20
2042.006849170686
 30
0.0
  0
VERTEX
  5
36B
  8
LPU
 10
1401.64221731424
 20
2040.653291693098
 30
0.0
  0
VERTEX
  5
36C
  8
LPU
 10
1399.724842443561
 20
2039.287660116764
 30
0.0
  0
VERTEX
  5
36D
  8
LPU
 10
1397.816085880018
 20
2037.910008354479
 30
0.0
  0
VERTEX
  5
36E
  8
LPU
 10
1395.916022978052
 20
2036.520390793577
 30
0.0
  0
VERTEX
  5
36F
  8
LPU
 10
1394.852169974153
 20
2035.732031012443
 30
0.0
  0
SEQEND
  5
E21
  8
LPU
  0
POLYLINE
  5
A8
  8
LPU
 66
     1
 10
0.0
 20
0.0
 30
0.0
  0
VERTEX
  5
370
  8
LPU
 10
1380.35548701617
 20
2024.418818503798
 30
0.0
  0
VERTEX
  5
371
  8
LPU
 10
1379.218932892046
 20
2023.484577817855
 30
0.0
  0
VERTEX
  5
372
  8
LPU
 10
1377.409874138786
 20
2021.978396413028
 30
0.0
  0
VERTEX
  5
373
  8
LPU
 10
1375.610314649401
 20
2020.460878162344
 30
0.0
  0
VERTEX
  5
374
  8
LPU
 10
1373.820325467419
 20
2018.932082974825
 30
0.0
  0
VERTEX
  5
375
  8
LPU
 10
1372.039977258548
 20
2017.392071204687
 30
0.0
  0
VERTEX
  5
376
  8
LPU
 10
1370.269340307887
 20
2015.840903648957
 30
0.0
  0
VERTEX
  5
377
  8
LPU
 10
1368.508484517151
 20
2014.278641545075
 30
0.0
  0
VERTEX
  5
378
  8
LPU
 10
1366.757479401911
 20
2012.705346568474
 30
0.0
  0
VERTEX
  5
379
  8
LPU
 10
1366.431025905715
 20
2012.40829674254
 30
0.0
  0
SEQEND
  5
E22
  8
LPU
  0
POLYLINE
  5
A9
  8
LPU
 66
     1
 10
0.0
 20
0.0
 30
0.0
  0
VERTEX
  5
37A
  8
LPU
 10
1353.112275079856
 20
1999.729346983447
 30
0.0
  0
VERTEX
  5
37B
  8
LPU
 10
1351.452989184935
 20
1998.059602597044
 30
0.0
  0
VERTEX
  5
37C
  8
LPU
 10
1349.804227287264
 20
1996.37946563781
 30
0.0
  0
VERTEX
  5
37D
  8
LPU
 10
1348.166054477139
 20
1994.689002434673
 30
0.0
  0
VERTEX
  5
37E
  8
LPU
 10
1346.538535426816
 20
1992.988279724226
 30
0.0
  0
VERTEX
  5
37F
  8
LPU
 10
1344.921734387962
 20
1991.277364648088
 30
0.0
  0
VERTEX
  5
380
  8
LPU
 10
1343.315715189111
 20
1989.55632475026
 30
0.0
  0
VERTEX
  5
381
  8
LPU
 10
1341.720541233154
 20
1987.825227974447
 30
0.0
  0
VERTEX
  5
382
  8
LPU
 10
1340.136275494825
 20
1986.084142661388
 30
0.0
  0
VERTEX
  5
383
  8
LPU
 10
1338.562980518224
 20
1984.333137546148
 30
0.0
  0
VERTEX
  5
384
  8
LPU
 10
1337.000718414342
 20
1982.572281755412
 30
0.0
  0
VERTEX
  5
385
  8
LPU
 10
1335.449550858612
 20
1980.801644804751
 30
0.0
  0
VERTEX
  5
386
  8
LPU
 10
1333.909539088474
 20
1979.02129659588
 30
0.0
  0
VERTEX
  5
387
  8
LPU
 10
1332.380743900955
 20
1977.231307413898
 30
0.0
  0
VERTEX
  5
388
  8
LPU
 10
1330.863225650271
 20
1975.431747924513
 30
0.0
  0
VERTEX
  5
389
  8
LPU
 10
1329.357044245444
 20
1973.622689171252
 30
0.0
  0
VERTEX
  5
38A
  8
LPU
 10
1327.862259147938
 20
1971.804202572658
 30
0.0
  0
VERTEX
  5
38B
  8
LPU
 10
1326.378929369308
 20
1969.976359919466
 30
0.0
  0
VERTEX
  5
38C
  8
LPU
 10
1324.907113468875
 20
1968.139233371777
 30
0.0
  0
VERTEX
  5
38D
  8
LPU
 10
1323.446869551409
 20
1966.292895456199
 30
0.0
  0
VERTEX
  5
38E
  8
LPU
 10
1321.998255264841
 20
1964.437419062993
 30
0.0
  0
VERTEX
  5
38F
  8
LPU
 10
1320.561327797982
 20
1962.572877443189
 30
0.0
  0
VERTEX
  5
390
  8
LPU
 10
1319.136143878268
 20
1960.699344205699
 30
0.0
  0
VERTEX
  5
391
  8
LPU
 10
1317.72275976952
 20
1958.816893314405
 30
0.0
  0
VERTEX
  5
392
  8
LPU
 10
1316.321231269722
 20
1956.925599085246
 30
0.0
  0
VERTEX
  5
393
  8
LPU
 10
1314.93161370882
 20
1955.025536183281
 30
0.0
  0
VERTEX
  5
394
  8
LPU
 10
1313.553961946535
 20
1953.116779619738
 30
0.0
  0
VERTEX
  5
395
  8
LPU
 10
1312.188330370201
 20
1951.199404749058
 30
0.0
  0
VERTEX
  5
396
  8
LPU
 10
1310.834772892613
 20
1949.273487265919
 30
0.0
  0
VERTEX
  5
397
  8
LPU
 10
1309.493342949904
 20
1947.339103202245
 30
0.0
  0
VERTEX
  5
398
  8
LPU
 10
1308.164093499429
 20
1945.396328924206
 30
0.0
  0
VERTEX
  5
399
  8
LPU
 10
1306.847077017683
 20
1943.445241129205
 30
0.0
  0
VERTEX
  5
39A
  8
LPU
 10
1305.542345498219
 20
1941.485916842847
 30
0.0
  0
VERTEX
  5
39B
  8
LPU
 10
1304.249950449605
 20
1939.5184334159
 30
0.0
  0
VERTEX
  5
39C
  8
LPU
 10
1302.969942893385
 20
1937.54286852124
 30
0.0
  0
VERTEX
  5
39D
  8
LPU
 10
1301.702373362064
 20
1935.559300150787
 30
0.0
  0
VERTEX
  5
39E
  8
LPU
 10
1300.447291897117
 20
1933.567806612424
 30
0.0
  0
VERTEX
  5
39F
  8
LPU
 10
1299.204748047013
 20
1931.568466526905
 30
0.0
  0
VERTEX
  5
3A0
  8
LPU
 10
1297.974790865253
 20
1929.561358824755
 30
0.0
  0
VERTEX
  5
3A1
  8
LPU
 10
1296.757468908442
 20
1927.546562743147
 30
0.0
  0
VERTEX
  5
3A2
  8
LPU
 10
1296.682178991314
 20
1927.420162435627
 30
0.0
  0
SEQEND
  5
E23
  8
LPU
  0
POLYLINE
  5
AA
  8
LPU
 66
     1
 10
0.0
 20
0.0
 30
0.0
  0
VERTEX
  5
3A3
  8
LPU
 10
1287.618741713911
 20
1911.420196449957
 30
0.0
  0
VERTEX
  5
3A4
  8
LPU
 10
1287.479422667539
 20
1911.161019597648
 30
0.0
  0
VERTEX
  5
3A5
  8
LPU
 10
1286.37791986069
 20
1909.080642813625
 30
0.0
  0
VERTEX
  5
3A6
  8
LPU
 10
1285.2895101034
 20
1906.993386193746
 30
0.0
  0
VERTEX
  5
3A7
  8
LPU
 10
1284.214236364222
 20
1904.899332139327
 30
0.0
  0
VERTEX
  5
3A8
  8
LPU
 10
1283.152141093123
 20
1902.798563320036
 30
0.0
  0
VERTEX
  5
3A9
  8
LPU
 10
1282.103266219805
 20
1900.69116267063
 30
0.0
  0
VERTEX
  5
3AA
  8
LPU
 10
1281.067653152053
 20
1898.577213387678
 30
0.0
  0
VERTEX
  5
3AB
  8
LPU
 10
1280.045342774097
 20
1896.456798926277
 30
0.0
  0
VERTEX
  5
3AC
  8
LPU
 10
1279.351677735344
 20
1894.994626724737
 30
0.0
  0
SEQEND
  5
E24
  8
LPU
  0
POLYLINE
  5
AB
  8
LPU
 66
     1
 10
0.0
 20
0.0
 30
0.0
  0
VERTEX
  5
3AD
  8
LPU
 10
1271.900071884961
 20
1878.183431833893
 30
0.0
  0
VERTEX
  5
3AE
  8
LPU
 10
1271.449655110864
 20
1877.096029549149
 30
0.0
  0
VERTEX
  5
3AF
  8
LPU
 10
1270.562503954563
 20
1874.915607841573
 30
0.0
  0
VERTEX
  5
3B0
  8
LPU
 10
1269.689070213361
 20
1872.729655075221
 30
0.0
  0
VERTEX
  5
3B1
  8
LPU
 10
1268.829388368925
 20
1870.538257547764
 30
0.0
  0
VERTEX
  5
3B2
  8
LPU
 10
1267.983492360024
 20
1868.341501771826
 30
0.0
  0
VERTEX
  5
3B3
  8
LPU
 10
1267.151415581184
 20
1866.139474471561
 30
0.0
  0
VERTEX
  5
3B4
  8
LPU
 10
1266.33319088137
 20
1863.932262579239
 30
0.0
  0
VERTEX
  5
3B5
  8
LPU
 10
1265.528850562694
 20
1861.719953231805
 30
0.0
  0
VERTEX
  5
3B6
  8
LPU
 10
1264.738426379132
 20
1859.502633767443
 30
0.0
  0
VERTEX
  5
3B7
  8
LPU
 10
1263.96194953528
 20
1857.28039172213
 30
0.0
  0
VERTEX
  5
3B8
  8
LPU
 10
1263.199450685113
 20
1855.053314826177
 30
0.0
  0
VERTEX
  5
3B9
  8
LPU
 10
1262.450959930781
 20
1852.821491000766
 30
0.0
  0
VERTEX
  5
3BA
  8
LPU
 10
1261.716506821415
 20
1850.58500835448
 30
0.0
  0
VERTEX
  5
3BB
  8
LPU
 10
1260.996120351968
 20
1848.343955179825
 30
0.0
  0
VERTEX
  5
3BC
  8
LPU
 10
1260.289828962065
 20
1846.098419949742
 30
0.0
  0
VERTEX
  5
3BD
  8
LPU
 10
1259.597660534879
 20
1843.848491314118
 30
0.0
  0
VERTEX
  5
3BE
  8
LPU
 10
1258.919642396035
 20
1841.594258096283
 30
0.0
  0
VERTEX
  5
3BF
  8
LPU
 10
1258.255801312528
 20
1839.335809289503
 30
0.0
  0
VERTEX
  5
3C0
  8
LPU
 10
1257.606163491668
 20
1837.073234053472
 30
0.0
  0
VERTEX
  5
3C1
  8
LPU
 10
1256.970754580042
 20
1834.806621710785
 30
0.0
  0
VERTEX
  5
3C2
  8
LPU
 10
1256.349599662509
 20
1832.536061743416
 30
0.0
  0
VERTEX
  5
3C3
  8
LPU
 10
1255.742723261198
 20
1830.261643789185
 30
0.0
  0
VERTEX
  5
3C4
  8
LPU
 10
1255.150149334553
 20
1827.983457638219
 30
0.0
  0
VERTEX
  5
3C5
  8
LPU
 10
1254.571901276376
 20
1825.701593229406
 30
0.0
  0
VERTEX
  5
3C6
  8
LPU
 10
1254.008001914912
 20
1823.416140646845
 30
0.0
  0
VERTEX
  5
3C7
  8
LPU
 10
1253.458473511941
 20
1821.127190116291
 30
0.0
  0
VERTEX
  5
3C8
  8
LPU
 10
1252.923337761903
 20
1818.834832001592
 30
0.0
  0
VERTEX
  5
3C9
  8
LPU
 10
1252.402615791043
 20
1816.539156801121
 30
0.0
  0
VERTEX
  5
3CA
  8
LPU
 10
1251.896328156571
 20
1814.240255144204
 30
0.0
  0
VERTEX
  5
3CB
  8
LPU
 10
1251.404494845857
 20
1811.938217787542
 30
0.0
  0
VERTEX
  5
3CC
  8
LPU
 10
1250.927135275637
 20
1809.633135611629
 30
0.0
  0
VERTEX
  5
3CD
  8
LPU
 10
1250.46426829125
 20
1807.325099617161
 30
0.0
  0
VERTEX
  5
3CE
  8
LPU
 10
1250.015912165891
 20
1805.014200921448
 30
0.0
  0
VERTEX
  5
3CF
  8
LPU
 10
1249.582084599894
 20
1802.700530754813
 30
0.0
  0
VERTEX
  5
3D0
  8
LPU
 10
1249.162802720028
 20
1800.384180456994
 30
0.0
  0
VERTEX
  5
3D1
  8
LPU
 10
1248.758083078823
 20
1798.065241473532
 30
0.0
  0
VERTEX
  5
3D2
  8
LPU
 10
1248.367941653917
 20
1795.74380535217
 30
0.0
  0
VERTEX
  5
3D3
  8
LPU
 10
1247.992393847426
 20
1793.419963739229
 30
0.0
  0
VERTEX
  5
3D4
  8
LPU
 10
1247.631454485335
 20
1791.093808375998
 30
0.0
  0
VERTEX
  5
3D5
  8
LPU
 10
1247.436651359347
 20
1789.784096155499
 30
0.0
  0
SEQEND
  5
E25
  8
LPU
  0
POLYLINE
  5
AC
  8
LPU
 66
     1
 10
0.0
 20
0.0
 30
0.0
  0
VERTEX
  5
3D6
  8
LPU
 10
1245.185597816914
 20
1771.533744049331
 30
0.0
  0
VERTEX
  5
3D7
  8
LPU
 10
1245.042540612851
 20
1770.069470996688
 30
0.0
  0
VERTEX
  5
3D8
  8
LPU
 10
1244.828373985906
 20
1767.725242199642
 30
0.0
  0
VERTEX
  5
3D9
  8
LPU
 10
1244.628940713446
 20
1765.379714035917
 30
0.0
  0
VERTEX
  5
3DA
  8
LPU
 10
1244.444248668756
 20
1763.032979102947
 30
0.0
  0
VERTEX
  5
3DB
  8
LPU
 10
1244.274305143162
 20
1760.685130045809
 30
0.0
  0
VERTEX
  5
3DC
  8
LPU
 10
1244.119116845743
 20
1758.336259553564
 30
0.0
  0
VERTEX
  5
3DD
  8
LPU
 10
1243.978689903067
 20
1755.986460355597
 30
0.0
  0
VERTEX
  5
3DE
  8
LPU
 10
1243.853029858951
 20
1753.635825217957
 30
0.0
  0
VERTEX
  5
3DF
  8
LPU
 10
1243.832238324316
 20
1753.194941790785
 30
0.0
  0
SEQEND
  5
E26
  8
LPU
  0
POLYLINE
  5
AD
  8
LPU
 66
     1
 10
0.0
 20
0.0
 30
0.0
  0
VERTEX
  5
3E0
  8
LPU
 10
1243.379830651395
 20
1734.811791411908
 30
0.0
  0
VERTEX
  5
3E1
  8
LPU
 10
1243.387225921643
 20
1732.45781152521
 30
0.0
  0
VERTEX
  5
3E2
  8
LPU
 10
1243.409411440435
 20
1730.103924569609
 30
0.0
  0
VERTEX
  5
3E3
  8
LPU
 10
1243.446386331925
 20
1727.750223472529
 30
0.0
  0
VERTEX
  5
3E4
  8
LPU
 10
1243.498149136407
 20
1725.396801154061
 30
0.0
  0
VERTEX
  5
3E5
  8
LPU
 10
1243.564697810374
 20
1723.043750523286
 30
0.0
  0
VERTEX
  5
3E6
  8
LPU
 10
1243.646029726598
 20
1720.691164474616
 30
0.0
  0
VERTEX
  5
3E7
  8
LPU
 10
1243.742141674236
 20
1718.339135884119
 30
0.0
  0
VERTEX
  5
3E8
  8
LPU
 10
1243.853029858951
 20
1715.987757605856
 30
0.0
  0
VERTEX
  5
3E9
  8
LPU
 10
1243.978689903068
 20
1713.637122468217
 30
0.0
  0
VERTEX
  5
3EA
  8
LPU
 10
1244.119116845743
 20
1711.28732327025
 30
0.0
  0
VERTEX
  5
3EB
  8
LPU
 10
1244.274305143162
 20
1708.938452778005
 30
0.0
  0
VERTEX
  5
3EC
  8
LPU
 10
1244.444248668756
 20
1706.590603720867
 30
0.0
  0
VERTEX
  5
3ED
  8
LPU
 10
1244.628940713446
 20
1704.243868787897
 30
0.0
  0
VERTEX
  5
3EE
  8
LPU
 10
1244.828373985906
 20
1701.898340624171
 30
0.0
  0
VERTEX
  5
3EF
  8
LPU
 10
1245.042540612851
 20
1699.554111827126
 30
0.0
  0
VERTEX
  5
3F0
  8
LPU
 10
1245.271432139351
 20
1697.2112749429
 30
0.0
  0
VERTEX
  5
3F1
  8
LPU
 10
1245.515039529159
 20
1694.869922462681
 30
0.0
  0
VERTEX
  5
3F2
  8
LPU
 10
1245.773353165074
 20
1692.530146819057
 30
0.0
  0
VERTEX
  5
3F3
  8
LPU
 10
1246.046362849314
 20
1690.192040382364
 30
0.0
  0
VERTEX
  5
3F4
  8
LPU
 10
1246.334057803926
 20
1687.855695457041
 30
0.0
  0
VERTEX
  5
3F5
  8
LPU
 10
1246.636426671204
 20
1685.521204277984
 30
0.0
  0
VERTEX
  5
3F6
  8
LPU
 10
1246.953457514144
 20
1683.188659006908
 30
0.0
  0
VERTEX
  5
3F7
  8
LPU
 10
1247.285137816912
 20
1680.858151728706
 30
0.0
  0
VERTEX
  5
3F8
  8
LPU
 10
1247.631454485336
 20
1678.529774447816
 30
0.0
  0
VERTEX
  5
3F9
  8
LPU
 10
1247.992393847427
 20
1676.203619084585
 30
0.0
  0
VERTEX
  5
3FA
  8
LPU
 10
1248.367941653917
 20
1673.879777471644
 30
0.0
  0
VERTEX
  5
3FB
  8
LPU
 10
1248.758083078823
 20
1671.558341350282
 30
0.0
  0
VERTEX
  5
3FC
  8
LPU
 10
1249.162802720028
 20
1669.23940236682
 30
0.0
  0
VERTEX
  5
3FD
  8
LPU
 10
1249.582084599895
 20
1666.923052069001
 30
0.0
  0
VERTEX
  5
3FE
  8
LPU
 10
1250.015912165892
 20
1664.609381902366
 30
0.0
  0
VERTEX
  5
3FF
  8
LPU
 10
1250.46426829125
 20
1662.298483206653
 30
0.0
  0
VERTEX
  5
400
  8
LPU
 10
1250.927135275637
 20
1659.990447212185
 30
0.0
  0
VERTEX
  5
401
  8
LPU
 10
1251.404494845857
 20
1657.685365036271
 30
0.0
  0
VERTEX
  5
402
  8
LPU
 10
1251.896328156571
 20
1655.38332767961
 30
0.0
  0
VERTEX
  5
403
  8
LPU
 10
1252.402615791043
 20
1653.084426022693
 30
0.0
  0
VERTEX
  5
404
  8
LPU
 10
1252.923337761904
 20
1650.788750822222
 30
0.0
  0
VERTEX
  5
405
  8
LPU
 10
1253.458473511941
 20
1648.496392707523
 30
0.0
  0
VERTEX
  5
406
  8
LPU
 10
1254.008001914912
 20
1646.207442176969
 30
0.0
  0
VERTEX
  5
407
  8
LPU
 10
1254.571901276377
 20
1643.921989594408
 30
0.0
  0
VERTEX
  5
408
  8
LPU
 10
1254.608041780013
 20
1643.779373068857
 30
0.0
  0
SEQEND
  5
E27
  8
LPU
  0
POLYLINE
  5
AE
  8
LPU
 66
     1
 10
0.0
 20
0.0
 30
0.0
  0
VERTEX
  5
409
  8
LPU
 10
1259.512908267523
 20
1626.056870661925
 30
0.0
  0
VERTEX
  5
40A
  8
LPU
 10
1259.597660534879
 20
1625.775091509696
 30
0.0
  0
VERTEX
  5
40B
  8
LPU
 10
1260.289828962065
 20
1623.525162874072
 30
0.0
  0
VERTEX
  5
40C
  8
LPU
 10
1260.996120351969
 20
1621.279627643989
 30
0.0
  0
VERTEX
  5
40D
  8
LPU
 10
1261.716506821416
 20
1619.038574469334
 30
0.0
  0
VERTEX
  5
40E
  8
LPU
 10
1262.450959930781
 20
1616.802091823048
 30
0.0
  0
VERTEX
  5
40F
  8
LPU
 10
1263.199450685114
 20
1614.570267997637
 30
0.0
  0
VERTEX
  5
410
  8
LPU
 10
1263.961949535281
 20
1612.343191101683
 30
0.0
  0
VERTEX
  5
411
  8
LPU
 10
1264.738426379133
 20
1610.120949056371
 30
0.0
  0
VERTEX
  5
412
  8
LPU
 10
1265.281843005331
 20
1608.596541924623
 30
0.0
  0
SEQEND
  5
E28
  8
LPU
  0
POLYLINE
  5
AF
  8
LPU
 66
     1
 10
0.0
 20
0.0
 30
0.0
  0
VERTEX
  5
413
  8
LPU
 10
1271.900071884961
 20
1591.440150989923
 30
0.0
  0
VERTEX
  5
414
  8
LPU
 10
1272.350488659056
 20
1590.352748705181
 30
0.0
  0
VERTEX
  5
415
  8
LPU
 10
1273.264969035772
 20
1588.18364713135
 30
0.0
  0
VERTEX
  5
416
  8
LPU
 10
1274.193060138891
 20
1586.020334185587
 30
0.0
  0
VERTEX
  5
417
  8
LPU
 10
1275.134725328968
 20
1583.862895271784
 30
0.0
  0
VERTEX
  5
418
  8
LPU
 10
1276.089927430673
 20
1581.711415561935
 30
0.0
  0
VERTEX
  5
419
  8
LPU
 10
1277.058628734261
 20
1579.565979992774
 30
0.0
  0
VERTEX
  5
41A
  8
LPU
 10
1278.040790997065
 20
1577.426673262425
 30
0.0
  0
VERTEX
  5
41B
  8
LPU
 10
1279.036375445
 20
1575.293579827053
 30
0.0
  0
VERTEX
  5
41C
  8
LPU
 10
1280.045342774098
 20
1573.166783897537
 30
0.0
  0
VERTEX
  5
41D
  8
LPU
 10
1281.067653152054
 20
1571.046369436136
 30
0.0
  0
VERTEX
  5
41E
  8
LPU
 10
1282.103266219806
 20
1568.932420153184
 30
0.0
  0
VERTEX
  5
41F
  8
LPU
 10
1283.152141093124
 20
1566.825019503777
 30
0.0
  0
VERTEX
  5
420
  8
LPU
 10
1284.214236364223
 20
1564.724250684487
 30
0.0
  0
VERTEX
  5
421
  8
LPU
 10
1285.2895101034
 20
1562.630196630068
 30
0.0
  0
VERTEX
  5
422
  8
LPU
 10
1286.37791986069
 20
1560.542940010188
 30
0.0
  0
VERTEX
  5
423
  8
LPU
 10
1287.479422667539
 20
1558.462563226166
 30
0.0
  0
VERTEX
  5
424
  8
LPU
 10
1288.593975038503
 20
1556.389148407715
 30
0.0
  0
VERTEX
  5
425
  8
LPU
 10
1289.721532972961
 20
1554.322777409701
 30
0.0
  0
VERTEX
  5
426
  8
LPU
 10
1290.862051956858
 20
1552.263531808912
 30
0.0
  0
VERTEX
  5
427
  8
LPU
 10
1292.015486964457
 20
1550.211492900841
 30
0.0
  0
VERTEX
  5
428
  8
LPU
 10
1293.181792460118
 20
1548.166741696468
 30
0.0
  0
VERTEX
  5
429
  8
LPU
 10
1294.360922400099
 20
1546.12935891907
 30
0.0
  0
VERTEX
  5
42A
  8
LPU
 10
1295.552830234367
 20
1544.099425001031
 30
0.0
  0
VERTEX
  5
42B
  8
LPU
 10
1296.757468908443
 20
1542.077020080667
 30
0.0
  0
VERTEX
  5
42C
  8
LPU
 10
1297.974790865254
 20
1540.06222399906
 30
0.0
  0
VERTEX
  5
42D
  8
LPU
 10
1299.204748047013
 20
1538.055116296909
 30
0.0
  0
VERTEX
  5
42E
  8
LPU
 10
1300.447291897118
 20
1536.05577621139
 30
0.0
  0
VERTEX
  5
42F
  8
LPU
 10
1301.702373362065
 20
1534.064282673027
 30
0.0
  0
VERTEX
  5
430
  8
LPU
 10
1302.969942893386
 20
1532.080714302574
 30
0.0
  0
VERTEX
  5
431
  8
LPU
 10
1304.249950449606
 20
1530.105149407914
 30
0.0
  0
VERTEX
  5
432
  8
LPU
 10
1305.54234549822
 20
1528.137665980967
 30
0.0
  0
VERTEX
  5
433
  8
LPU
 10
1306.847077017683
 20
1526.178341694609
 30
0.0
  0
VERTEX
  5
434
  8
LPU
 10
1308.16409349943
 20
1524.227253899608
 30
0.0
  0
VERTEX
  5
435
  8
LPU
 10
1309.493342949904
 20
1522.284479621569
 30
0.0
  0
VERTEX
  5
436
  8
LPU
 10
1310.834772892614
 20
1520.350095557895
 30
0.0
  0
VERTEX
  5
437
  8
LPU
 10
1312.188330370202
 20
1518.424178074756
 30
0.0
  0
VERTEX
  5
438
  8
LPU
 10
1313.553961946536
 20
1516.506803204076
 30
0.0
  0
VERTEX
  5
439
  8
LPU
 10
1314.931613708821
 20
1514.598046640533
 30
0.0
  0
VERTEX
  5
43A
  8
LPU
 10
1316.321231269723
 20
1512.697983738568
 30
0.0
  0
VERTEX
  5
43B
  8
LPU
 10
1317.10959105086
 20
1511.634130734665
 30
0.0
  0
SEQEND
  5
E29
  8
LPU
  0
POLYLINE
  5
B0
  8
LPU
 66
     1
 10
0.0
 20
0.0
 30
0.0
  0
VERTEX
  5
43C
  8
LPU
 10
1328.422803559504
 20
1497.137447776683
 30
0.0
  0
VERTEX
  5
43D
  8
LPU
 10
1329.357044245445
 20
1496.000893652562
 30
0.0
  0
VERTEX
  5
43E
  8
LPU
 10
1330.863225650271
 20
1494.191834899301
 30
0.0
  0
VERTEX
  5
43F
  8
LPU
 10
1332.380743900956
 20
1492.392275409916
 30
0.0
  0
VERTEX
  5
440
  8
LPU
 10
1333.909539088475
 20
1490.602286227934
 30
0.0
  0
VERTEX
  5
441
  8
LPU
 10
1335.449550858613
 20
1488.821938019064
 30
0.0
  0
VERTEX
  5
442
  8
LPU
 10
1337.000718414343
 20
1487.051301068402
 30
0.0
  0
VERTEX
  5
443
  8
LPU
 10
1338.562980518225
 20
1485.290445277666
 30
0.0
  0
VERTEX
  5
444
  8
LPU
 10
1340.136275494826
 20
1483.539440162426
 30
0.0
  0
VERTEX
  5
445
  8
LPU
 10
1340.433325320763
 20
1483.212986666228
 30
0.0
  0
SEQEND
  5
E2A
  8
LPU
  0
POLYLINE
  5
B1
  8
LPU
 66
     1
 10
0.0
 20
0.0
 30
0.0
  0
VERTEX
  5
446
  8
LPU
 10
1353.112275079855
 20
1469.894235840369
 30
0.0
  0
VERTEX
  5
447
  8
LPU
 10
1354.782019466255
 20
1468.23494994545
 30
0.0
  0
VERTEX
  5
448
  8
LPU
 10
1356.46215642549
 20
1466.58618804778
 30
0.0
  0
VERTEX
  5
449
  8
LPU
 10
1358.152619628627
 20
1464.948015237655
 30
0.0
  0
VERTEX
  5
44A
  8
LPU
 10
1359.853342339074
 20
1463.320496187332
 30
0.0
  0
VERTEX
  5
44B
  8
LPU
 10
1361.564257415211
 20
1461.703695148477
 30
0.0
  0
VERTEX
  5
44C
  8
LPU
 10
1363.28529731304
 20
1460.097675949627
 30
0.0
  0
VERTEX
  5
44D
  8
LPU
 10
1365.016394088852
 20
1458.502501993669
 30
0.0
  0
VERTEX
  5
44E
  8
LPU
 10
1366.757479401912
 20
1456.91823625534
 30
0.0
  0
VERTEX
  5
44F
  8
LPU
 10
1368.508484517152
 20
1455.344941278739
 30
0.0
  0
VERTEX
  5
450
  8
LPU
 10
1370.269340307888
 20
1453.782679174858
 30
0.0
  0
VERTEX
  5
451
  8
LPU
 10
1372.039977258549
 20
1452.231511619128
 30
0.0
  0
VERTEX
  5
452
  8
LPU
 10
1373.82032546742
 20
1450.691499848989
 30
0.0
  0
VERTEX
  5
453
  8
LPU
 10
1375.610314649402
 20
1449.16270466147
 30
0.0
  0
VERTEX
  5
454
  8
LPU
 10
1377.409874138787
 20
1447.645186410786
 30
0.0
  0
VERTEX
  5
455
  8
LPU
 10
1379.218932892048
 20
1446.13900500596
 30
0.0
  0
VERTEX
  5
456
  8
LPU
 10
1381.037419490642
 20
1444.644219908454
 30
0.0
  0
VERTEX
  5
457
  8
LPU
 10
1382.865262143833
 20
1443.160890129824
 30
0.0
  0
VERTEX
  5
458
  8
LPU
 10
1384.702388691523
 20
1441.689074229391
 30
0.0
  0
VERTEX
  5
459
  8
LPU
 10
1386.5487266071
 20
1440.228830311925
 30
0.0
  0
VERTEX
  5
45A
  8
LPU
 10
1388.404203000307
 20
1438.780216025357
 30
0.0
  0
VERTEX
  5
45B
  8
LPU
 10
1390.26874462011
 20
1437.343288558498
 30
0.0
  0
VERTEX
  5
45C
  8
LPU
 10
1392.142277857601
 20
1435.918104638784
 30
0.0
  0
VERTEX
  5
45D
  8
LPU
 10
1394.024728748895
 20
1434.504720530035
 30
0.0
  0
VERTEX
  5
45E
  8
LPU
 10
1395.916022978053
 20
1433.103192030238
 30
0.0
  0
VERTEX
  5
45F
  8
LPU
 10
1397.816085880019
 20
1431.713574469336
 30
0.0
  0
VERTEX
  5
460
  8
LPU
 10
1399.724842443562
 20
1430.335922707051
 30
0.0
  0
VERTEX
  5
461
  8
LPU
 10
1401.642217314241
 20
1428.970291130717
 30
0.0
  0
VERTEX
  5
462
  8
LPU
 10
1403.56813479738
 20
1427.616733653129
 30
0.0
  0
VERTEX
  5
463
  8
LPU
 10
1405.502518861055
 20
1426.275303710419
 30
0.0
  0
VERTEX
  5
464
  8
LPU
 10
1407.445293139093
 20
1424.946054259945
 30
0.0
  0
VERTEX
  5
465
  8
LPU
 10
1409.396380934094
 20
1423.629037778198
 30
0.0
  0
VERTEX
  5
466
  8
LPU
 10
1411.355705220452
 20
1422.324306258735
 30
0.0
  0
VERTEX
  5
467
  8
LPU
 10
1413.3231886474
 20
1421.031911210121
 30
0.0
  0
VERTEX
  5
468
  8
LPU
 10
1415.29875354206
 20
1419.751903653901
 30
0.0
  0
VERTEX
  5
469
  8
LPU
 10
1417.282321912513
 20
1418.48433412258
 30
0.0
  0
VERTEX
  5
46A
  8
LPU
 10
1419.273815450876
 20
1417.229252657633
 30
0.0
  0
VERTEX
  5
46B
  8
LPU
 10
1421.273155536394
 20
1415.986708807528
 30
0.0
  0
VERTEX
  5
46C
  8
LPU
 10
1423.280263238545
 20
1414.756751625769
 30
0.0
  0
VERTEX
  5
46D
  8
LPU
 10
1425.295059320152
 20
1413.539429668958
 30
0.0
  0
VERTEX
  5
46E
  8
LPU
 10
1425.421459627677
 20
1413.464139751827
 30
0.0
  0
SEQEND
  5
E2B
  8
LPU
  0
POLYLINE
  5
B2
  8
LPU
 66
     1
 10
0.0
 20
0.0
 30
0.0
  0
VERTEX
  5
46F
  8
LPU
 10
1441.421425613348
 20
1404.400702474424
 30
0.0
  0
VERTEX
  5
470
  8
LPU
 10
1441.680602465652
 20
1404.261383428055
 30
0.0
  0
VERTEX
  5
471
  8
LPU
 10
1443.760979249674
 20
1403.159880621206
 30
0.0
  0
VERTEX
  5
472
  8
LPU
 10
1445.848235869553
 20
1402.071470863915
 30
0.0
  0
VERTEX
  5
473
  8
LPU
 10
1447.942289923972
 20
1400.996197124738
 30
0.0
  0
VERTEX
  5
474
  8
LPU
 10
1450.043058743263
 20
1399.934101853639
 30
0.0
  0
VERTEX
  5
475
  8
LPU
 10
1452.150459392669
 20
1398.885226980321
 30
0.0
  0
VERTEX
  5
476
  8
LPU
 10
1454.264408675621
 20
1397.849613912569
 30
0.0
  0
VERTEX
  5
477
  8
LPU
 10
1456.384823137022
 20
1396.827303534613
 30
0.0
  0
VERTEX
  5
478
  8
LPU
 10
1457.846995338567
 20
1396.133638495857
 30
0.0
  0
SEQEND
  5
E2C
  8
LPU
  0
POLYLINE
  5
B3
  8
LPU
 66
     1
 10
0.0
 20
0.0
 30
0.0
  0
VERTEX
  5
479
  8
LPU
 10
1474.658190229412
 20
1388.682032645475
 30
0.0
  0
VERTEX
  5
47A
  8
LPU
 10
1475.74559251415
 20
1388.23161587138
 30
0.0
  0
VERTEX
  5
47B
  8
LPU
 10
1477.926014221726
 20
1387.344464715079
 30
0.0
  0
VERTEX
  5
47C
  8
LPU
 10
1480.111966988078
 20
1386.471030973877
 30
0.0
  0
VERTEX
  5
47D
  8
LPU
 10
1482.303364515535
 20
1385.611349129441
 30
0.0
  0
VERTEX
  5
47E
  8
LPU
 10
1484.500120291474
 20
1384.76545312054
 30
0.0
  0
VERTEX
  5
47F
  8
LPU
 10
1486.702147591738
 20
1383.9333763417
 30
0.0
  0
VERTEX
  5
480
  8
LPU
 10
1488.90935948406
 20
1383.115151641886
 30
0.0
  0
VERTEX
  5
481
  8
LPU
 10
1491.121668831494
 20
1382.310811323209
 30
0.0
  0
VERTEX
  5
482
  8
LPU
 10
1493.338988295856
 20
1381.520387139648
 30
0.0
  0
VERTEX
  5
483
  8
LPU
 10
1495.561230341169
 20
1380.743910295796
 30
0.0
  0
VERTEX
  5
484
  8
LPU
 10
1497.788307237122
 20
1379.981411445629
 30
0.0
  0
VERTEX
  5
485
  8
LPU
 10
1500.020131062533
 20
1379.232920691296
 30
0.0
  0
VERTEX
  5
486
  8
LPU
 10
1502.256613708819
 20
1378.498467581931
 30
0.0
  0
VERTEX
  5
487
  8
LPU
 10
1504.497666883474
 20
1377.778081112484
 30
0.0
  0
VERTEX
  5
488
  8
LPU
 10
1506.743202113557
 20
1377.07178972258
 30
0.0
  0
VERTEX
  5
489
  8
LPU
 10
1508.993130749181
 20
1376.379621295394
 30
0.0
  0
VERTEX
  5
48A
  8
LPU
 10
1511.247363967016
 20
1375.70160315655
 30
0.0
  0
VERTEX
  5
48B
  8
LPU
 10
1513.505812773795
 20
1375.037762073043
 30
0.0
  0
VERTEX
  5
48C
  8
LPU
 10
1515.768388009827
 20
1374.388124252183
 30
0.0
  0
VERTEX
  5
48D
  8
LPU
 10
1518.035000352514
 20
1373.752715340558
 30
0.0
  0
VERTEX
  5
48E
  8
LPU
 10
1520.305560319883
 20
1373.131560423024
 30
0.0
  0
VERTEX
  5
48F
  8
LPU
 10
1522.579978274114
 20
1372.524684021714
 30
0.0
  0
VERTEX
  5
490
  8
LPU
 10
1524.85816442508
 20
1371.932110095069
 30
0.0
  0
VERTEX
  5
491
  8
LPU
 10
1527.140028833893
 20
1371.353862036892
 30
0.0
  0
VERTEX
  5
492
  8
LPU
 10
1529.425481416454
 20
1370.789962675428
 30
0.0
  0
VERTEX
  5
493
  8
LPU
 10
1531.714431947008
 20
1370.240434272456
 30
0.0
  0
VERTEX
  5
494
  8
LPU
 10
1534.006790061707
 20
1369.705298522419
 30
0.0
  0
VERTEX
  5
495
  8
LPU
 10
1536.302465262178
 20
1369.184576551559
 30
0.0
  0
VERTEX
  5
496
  8
LPU
 10
1538.601366919095
 20
1368.678288917087
 30
0.0
  0
VERTEX
  5
497
  8
LPU
 10
1540.903404275756
 20
1368.186455606372
 30
0.0
  0
VERTEX
  5
498
  8
LPU
 10
1543.20848645167
 20
1367.709096036152
 30
0.0
  0
VERTEX
  5
499
  8
LPU
 10
1545.516522446138
 20
1367.246229051765
 30
0.0
  0
VERTEX
  5
49A
  8
LPU
 10
1547.827421141851
 20
1366.797872926407
 30
0.0
  0
VERTEX
  5
49B
  8
LPU
 10
1550.141091308486
 20
1366.36404536041
 30
0.0
  0
VERTEX
  5
49C
  8
LPU
 10
1552.457441606305
 20
1365.944763480544
 30
0.0
  0
VERTEX
  5
49D
  8
LPU
 10
1554.776380589767
 20
1365.540043839338
 30
0.0
  0
VERTEX
  5
49E
  8
LPU
 10
1557.097816711129
 20
1365.149902414433
 30
0.0
  0
VERTEX
  5
49F
  8
LPU
 10
1559.42165832407
 20
1364.774354607942
 30
0.0
  0
VERTEX
  5
4A0
  8
LPU
 10
1561.747813687301
 20
1364.413415245851
 30
0.0
  0
VERTEX
  5
4A1
  8
LPU
 10
1563.057525907806
 20
1364.218612119862
 30
0.0
  0
SEQEND
  5
E2D
  8
LPU
  0
POLYLINE
  5
B4
  8
LPU
 66
     1
 10
0.0
 20
0.0
 30
0.0
  0
VERTEX
  5
4A2
  8
LPU
 10
1581.307878013974
 20
1361.967558577429
 30
0.0
  0
VERTEX
  5
4A3
  8
LPU
 10
1582.772151066611
 20
1361.824501373367
 30
0.0
  0
VERTEX
  5
4A4
  8
LPU
 10
1585.116379863656
 20
1361.610334746421
 30
0.0
  0
VERTEX
  5
4A5
  8
LPU
 10
1587.461908027382
 20
1361.410901473961
 30
0.0
  0
VERTEX
  5
4A6
  8
LPU
 10
1589.808642960352
 20
1361.226209429272
 30
0.0
  0
VERTEX
  5
4A7
  8
LPU
 10
1592.15649201749
 20
1361.056265903678
 30
0.0
  0
VERTEX
  5
4A8
  8
LPU
 10
1594.505362509735
 20
1360.901077606259
 30
0.0
  0
VERTEX
  5
4A9
  8
LPU
 10
1596.855161707701
 20
1360.760650663583
 30
0.0
  0
VERTEX
  5
4AA
  8
LPU
 10
1599.205796845341
 20
1360.634990619466
 30
0.0
  0
VERTEX
  5
4AB
  8
LPU
 10
1599.646680272521
 20
1360.614199084832
 30
0.0
  0
SEQEND
  5
E2E
  8
LPU
  0
POLYLINE
  5
B5
  8
LPU
 66
     1
 10
0.0
 20
0.0
 30
0.0
  0
VERTEX
  5
4AC
  8
LPU
 10
1618.029830651397
 20
1360.161791411911
 30
0.0
  0
VERTEX
  5
4AD
  8
LPU
 10
1620.383810538088
 20
1360.169186682159
 30
0.0
  0
VERTEX
  5
4AE
  8
LPU
 10
1622.73769749369
 20
1360.191372200951
 30
0.0
  0
VERTEX
  5
4AF
  8
LPU
 10
1625.091398590769
 20
1360.228347092441
 30
0.0
  0
VERTEX
  5
4B0
  8
LPU
 10
1627.444820909238
 20
1360.280109896922
 30
0.0
  0
VERTEX
  5
4B1
  8
LPU
 10
1629.797871540012
 20
1360.346658570889
 30
0.0
  0
VERTEX
  5
4B2
  8
LPU
 10
1632.150457588682
 20
1360.427990487114
 30
0.0
  0
VERTEX
  5
4B3
  8
LPU
 10
1634.50248617918
 20
1360.524102434751
 30
0.0
  0
VERTEX
  5
4B4
  8
LPU
 10
1636.853864457442
 20
1360.634990619466
 30
0.0
  0
VERTEX
  5
4B5
  8
LPU
 10
1639.204499595082
 20
1360.760650663583
 30
0.0
  0
VERTEX
  5
4B6
  8
LPU
 10
1641.554298793048
 20
1360.901077606259
 30
0.0
  0
VERTEX
  5
4B7
  8
LPU
 10
1643.903169285294
 20
1361.056265903678
 30
0.0
  0
VERTEX
  5
4B8
  8
LPU
 10
1646.251018342432
 20
1361.226209429272
 30
0.0
  0
VERTEX
  5
4B9
  8
LPU
 10
1648.597753275401
 20
1361.410901473961
 30
0.0
  0
VERTEX
  5
4BA
  8
LPU
 10
1650.943281439128
 20
1361.610334746421
 30
0.0
  0
VERTEX
  5
4BB
  8
LPU
 10
1653.287510236173
 20
1361.824501373367
 30
0.0
  0
VERTEX
  5
4BC
  8
LPU
 10
1655.630347120399
 20
1362.053392899867
 30
0.0
  0
VERTEX
  5
4BD
  8
LPU
 10
1657.971699600617
 20
1362.297000289675
 30
0.0
  0
VERTEX
  5
4BE
  8
LPU
 10
1660.311475244241
 20
1362.555313925589
 30
0.0
  0
VERTEX
  5
4BF
  8
LPU
 10
1662.649581680934
 20
1362.82832360983
 30
0.0
  0
VERTEX
  5
4C0
  8
LPU
 10
1664.985926606258
 20
1363.116018564441
 30
0.0
  0
VERTEX
  5
4C1
  8
LPU
 10
1667.320417785315
 20
1363.41838743172
 30
0.0
  0
VERTEX
  5
4C2
  8
LPU
 10
1669.652963056391
 20
1363.73541827466
 30
0.0
  0
VERTEX
  5
4C3
  8
LPU
 10
1671.983470334592
 20
1364.067098577427
 30
0.0
  0
VERTEX
  5
4C4
  8
LPU
 10
1674.311847615483
 20
1364.413415245851
 30
0.0
  0
VERTEX
  5
4C5
  8
LPU
 10
1676.638002978714
 20
1364.774354607942
 30
0.0
  0
VERTEX
  5
4C6
  8
LPU
 10
1678.961844591654
 20
1365.149902414433
 30
0.0
  0
VERTEX
  5
4C7
  8
LPU
 10
1681.283280713017
 20
1365.540043839338
 30
0.0
  0
VERTEX
  5
4C8
  8
LPU
 10
1683.602219696478
 20
1365.944763480544
 30
0.0
  0
VERTEX
  5
4C9
  8
LPU
 10
1685.918569994298
 20
1366.36404536041
 30
0.0
  0
VERTEX
  5
4CA
  8
LPU
 10
1688.232240160933
 20
1366.797872926407
 30
0.0
  0
VERTEX
  5
4CB
  8
LPU
 10
1690.543138856646
 20
1367.246229051765
 30
0.0
  0
VERTEX
  5
4CC
  8
LPU
 10
1692.851174851114
 20
1367.709096036152
 30
0.0
  0
VERTEX
  5
4CD
  8
LPU
 10
1695.156257027027
 20
1368.186455606372
 30
0.0
  0
VERTEX
  5
4CE
  8
LPU
 10
1697.458294383689
 20
1368.678288917087
 30
0.0
  0
VERTEX
  5
4CF
  8
LPU
 10
1699.757196040606
 20
1369.184576551559
 30
0.0
  0
VERTEX
  5
4D0
  8
LPU
 10
1702.052871241076
 20
1369.705298522419
 30
0.0
  0
VERTEX
  5
4D1
  8
LPU
 10
1704.345229355776
 20
1370.240434272457
 30
0.0
  0
VERTEX
  5
4D2
  8
LPU
 10
1706.63417988633
 20
1370.789962675428
 30
0.0
  0
VERTEX
  5
4D3
  8
LPU
 10
1708.91963246889
 20
1371.353862036892
 30
0.0
  0
VERTEX
  5
4D4
  8
LPU
 10
1709.062248994447
 20
1371.39000254053
 30
0.0
  0
SEQEND
  5
E2F
  8
LPU
  0
POLYLINE
  5
B6
  8
LPU
 66
     1
 10
0.0
 20
0.0
 30
0.0
  0
VERTEX
  5
4D5
  8
LPU
 10
1726.784751401379
 20
1376.294869028041
 30
0.0
  0
VERTEX
  5
4D6
  8
LPU
 10
1727.066530553603
 20
1376.379621295395
 30
0.0
  0
VERTEX
  5
4D7
  8
LPU
 10
1729.316459189227
 20
1377.071789722581
 30
0.0
  0
VERTEX
  5
4D8
  8
LPU
 10
1731.561994419309
 20
1377.778081112484
 30
0.0
  0
VERTEX
  5
4D9
  8
LPU
 10
1733.803047593965
 20
1378.498467581931
 30
0.0
  0
VERTEX
  5
4DA
  8
LPU
 10
1736.039530240251
 20
1379.232920691297
 30
0.0
  0
VERTEX
  5
4DB
  8
LPU
 10
1738.271354065662
 20
1379.98141144563
 30
0.0
  0
VERTEX
  5
4DC
  8
LPU
 10
1740.498430961615
 20
1380.743910295797
 30
0.0
  0
VERTEX
  5
4DD
  8
LPU
 10
1742.720673006927
 20
1381.520387139649
 30
0.0
  0
VERTEX
  5
4DE
  8
LPU
 10
1744.245080138682
 20
1382.063803765849
 30
0.0
  0
SEQEND
  5
E30
  8
LPU
  0
POLYLINE
  5
B7
  8
LPU
 66
     1
 10
0.0
 20
0.0
 30
0.0
  0
VERTEX
  5
4DF
  8
LPU
 10
1761.401471073382
 20
1388.682032645479
 30
0.0
  0
VERTEX
  5
4E0
  8
LPU
 10
1762.488873358117
 20
1389.132449419572
 30
0.0
  0
VERTEX
  5
4E1
  8
LPU
 10
1764.657974931948
 20
1390.046929796287
 30
0.0
  0
VERTEX
  5
4E2
  8
LPU
 10
1766.821287877711
 20
1390.975020899407
 30
0.0
  0
VERTEX
  5
4E3
  8
LPU
 10
1768.978726791514
 20
1391.916686089484
 30
0.0
  0
VERTEX
  5
4E4
  8
LPU
 10
1771.130206501363
 20
1392.871888191188
 30
0.0
  0
VERTEX
  5
4E5
  8
LPU
 10
1773.275642070524
 20
1393.840589494777
 30
0.0
  0
VERTEX
  5
4E6
  8
LPU
 10
1775.414948800873
 20
1394.822751757581
 30
0.0
  0
VERTEX
  5
4E7
  8
LPU
 10
1777.548042236245
 20
1395.818336205516
 30
0.0
  0
VERTEX
  5
4E8
  8
LPU
 10
1779.674838165762
 20
1396.827303534613
 30
0.0
  0
VERTEX
  5
4E9
  8
LPU
 10
1781.795252627162
 20
1397.849613912569
 30
0.0
  0
VERTEX
  5
4EA
  8
LPU
 10
1783.909201910114
 20
1398.885226980322
 30
0.0
  0
VERTEX
  5
4EB
  8
LPU
 10
1786.016602559521
 20
1399.934101853639
 30
0.0
  0
VERTEX
  5
4EC
  8
LPU
 10
1788.117371378811
 20
1400.996197124738
 30
0.0
  0
VERTEX
  5
4ED
  8
LPU
 10
1790.21142543323
 20
1402.071470863916
 30
0.0
  0
VERTEX
  5
4EE
  8
LPU
 10
1792.29868205311
 20
1403.159880621206
 30
0.0
  0
VERTEX
  5
4EF
  8
LPU
 10
1794.379058837132
 20
1404.261383428055
 30
0.0
  0
VERTEX
  5
4F0
  8
LPU
 10
1796.452473655583
 20
1405.375935799018
 30
0.0
  0
VERTEX
  5
4F1
  8
LPU
 10
1798.518844653598
 20
1406.503493733476
 30
0.0
  0
VERTEX
  5
4F2
  8
LPU
 10
1800.578090254386
 20
1407.644012717373
 30
0.0
  0
VERTEX
  5
4F3
  8
LPU
 10
1802.630129162458
 20
1408.797447724972
 30
0.0
  0
VERTEX
  5
4F4
  8
LPU
 10
1804.67488036683
 20
1409.963753220634
 30
0.0
  0
VERTEX
  5
4F5
  8
LPU
 10
1806.712263144228
 20
1411.142883160614
 30
0.0
  0
VERTEX
  5
4F6
  8
LPU
 10
1808.742197062266
 20
1412.334790994882
 30
0.0
  0
VERTEX
  5
4F7
  8
LPU
 10
1810.764601982631
 20
1413.539429668958
 30
0.0
  0
VERTEX
  5
4F8
  8
LPU
 10
1812.779398064239
 20
1414.756751625769
 30
0.0
  0
VERTEX
  5
4F9
  8
LPU
 10
1814.786505766389
 20
1415.986708807529
 30
0.0
  0
VERTEX
  5
4FA
  8
LPU
 10
1816.785845851908
 20
1417.229252657634
 30
0.0
  0
VERTEX
  5
4FB
  8
LPU
 10
1818.777339390271
 20
1418.48433412258
 30
0.0
  0
VERTEX
  5
4FC
  8
LPU
 10
1820.760907760724
 20
1419.751903653901
 30
0.0
  0
VERTEX
  5
4FD
  8
LPU
 10
1822.736472655384
 20
1421.031911210122
 30
0.0
  0
VERTEX
  5
4FE
  8
LPU
 10
1824.703956082331
 20
1422.324306258735
 30
0.0
  0
VERTEX
  5
4FF
  8
LPU
 10
1826.663280368689
 20
1423.629037778199
 30
0.0
  0
VERTEX
  5
500
  8
LPU
 10
1828.61436816369
 20
1424.946054259945
 30
0.0
  0
VERTEX
  5
501
  8
LPU
 10
1830.557142441729
 20
1426.27530371042
 30
0.0
  0
VERTEX
  5
502
  8
LPU
 10
1832.491526505403
 20
1427.616733653129
 30
0.0
  0
VERTEX
  5
503
  8
LPU
 10
1834.417443988542
 20
1428.970291130717
 30
0.0
  0
VERTEX
  5
504
  8
LPU
 10
1836.334818859222
 20
1430.335922707051
 30
0.0
  0
VERTEX
  5
505
  8
LPU
 10
1838.243575422764
 20
1431.713574469336
 30
0.0
  0
VERTEX
  5
506
  8
LPU
 10
1840.14363832473
 20
1433.103192030238
 30
0.0
  0
VERTEX
  5
507
  8
LPU
 10
1841.207491328639
 20
1433.891551811379
 30
0.0
  0
SEQEND
  5
E31
  8
LPU
  0
POLYLINE
  5
B8
  8
LPU
 66
     1
 10
0.0
 20
0.0
 30
0.0
  0
VERTEX
  5
508
  8
LPU
 10
1855.704174286621
 20
1445.204764320024
 30
0.0
  0
VERTEX
  5
509
  8
LPU
 10
1856.840728410736
 20
1446.13900500596
 30
0.0
  0
VERTEX
  5
50A
  8
LPU
 10
1858.649787163997
 20
1447.645186410787
 30
0.0
  0
VERTEX
  5
50B
  8
LPU
 10
1860.449346653381
 20
1449.162704661471
 30
0.0
  0
VERTEX
  5
50C
  8
LPU
 10
1862.239335835363
 20
1450.69149984899
 30
0.0
  0
VERTEX
  5
50D
  8
LPU
 10
1864.019684044235
 20
1452.231511619128
 30
0.0
  0
VERTEX
  5
50E
  8
LPU
 10
1865.790320994895
 20
1453.782679174858
 30
0.0
  0
VERTEX
  5
50F
  8
LPU
 10
1867.551176785631
 20
1455.34494127874
 30
0.0
  0
VERTEX
  5
510
  8
LPU
 10
1869.302181900871
 20
1456.918236255341
 30
0.0
  0
VERTEX
  5
511
  8
LPU
 10
1869.628635397077
 20
1457.215286081284
 30
0.0
  0
SEQEND
  5
E32
  8
LPU
  0
POLYLINE
  5
B9
  8
LPU
 66
     1
 10
0.0
 20
0.0
 30
0.0
  0
VERTEX
  5
512
  8
LPU
 10
1882.947386222935
 20
1469.894235840375
 30
0.0
  0
VERTEX
  5
513
  8
LPU
 10
1884.606672117848
 20
1471.563980226771
 30
0.0
  0
VERTEX
  5
514
  8
LPU
 10
1886.255434015518
 20
1473.244117186005
 30
0.0
  0
VERTEX
  5
515
  8
LPU
 10
1887.893606825643
 20
1474.934580389142
 30
0.0
  0
VERTEX
  5
516
  8
LPU
 10
1889.521125875966
 20
1476.635303099589
 30
0.0
  0
VERTEX
  5
517
  8
LPU
 10
1891.137926914821
 20
1478.346218175726
 30
0.0
  0
VERTEX
  5
518
  8
LPU
 10
1892.743946113671
 20
1480.067258073555
 30
0.0
  0
VERTEX
  5
519
  8
LPU
 10
1894.339120069629
 20
1481.798354849368
 30
0.0
  0
VERTEX
  5
51A
  8
LPU
 10
1895.923385807957
 20
1483.539440162427
 30
0.0
  0
VERTEX
  5
51B
  8
LPU
 10
1897.496680784559
 20
1485.290445277667
 30
0.0
  0
VERTEX
  5
51C
  8
LPU
 10
1899.05894288844
 20
1487.051301068403
 30
0.0
  0
VERTEX
  5
51D
  8
LPU
 10
1900.61011044417
 20
1488.821938019064
 30
0.0
  0
VERTEX
  5
51E
  8
LPU
 10
1902.150122214308
 20
1490.602286227935
 30
0.0
  0
VERTEX
  5
51F
  8
LPU
 10
1903.678917401828
 20
1492.392275409917
 30
0.0
  0
VERTEX
  5
520
  8
LPU
 10
1905.196435652511
 20
1494.191834899302
 30
0.0
  0
VERTEX
  5
521
  8
LPU
 10
1906.702617057338
 20
1496.000893652563
 30
0.0
  0
VERTEX
  5
522
  8
LPU
 10
1908.197402154844
 20
1497.819380251157
 30
0.0
  0
VERTEX
  5
523
  8
LPU
 10
1909.680731933474
 20
1499.647222904348
 30
0.0
  0
VERTEX
  5
524
  8
LPU
 10
1911.152547833907
 20
1501.484349452038
 30
0.0
  0
VERTEX
  5
525
  8
LPU
 10
1912.612791751373
 20
1503.330687367615
 30
0.0
  0
VERTEX
  5
526
  8
LPU
 10
1914.061406037941
 20
1505.186163760822
 30
0.0
  0
VERTEX
  5
527
  8
LPU
 10
1915.4983335048
 20
1507.050705380625
 30
0.0
  0
VERTEX
  5
528
  8
LPU
 10
1916.923517424514
 20
1508.924238618116
 30
0.0
  0
VERTEX
  5
529
  8
LPU
 10
1918.336901533263
 20
1510.80668950941
 30
0.0
  0
VERTEX
  5
52A
  8
LPU
 10
1919.73843003306
 20
1512.697983738568
 30
0.0
  0
VERTEX
  5
52B
  8
LPU
 10
1921.128047593963
 20
1514.598046640534
 30
0.0
  0
VERTEX
  5
52C
  8
LPU
 10
1922.505699356248
 20
1516.506803204077
 30
0.0
  0
VERTEX
  5
52D
  8
LPU
 10
1923.871330932582
 20
1518.424178074756
 30
0.0
  0
VERTEX
  5
52E
  8
LPU
 10
1925.22488841017
 20
1520.350095557895
 30
0.0
  0
VERTEX
  5
52F
  8
LPU
 10
1926.566318352879
 20
1522.28447962157
 30
0.0
  0
VERTEX
  5
530
  8
LPU
 10
1927.895567803353
 20
1524.227253899608
 30
0.0
  0
VERTEX
  5
531
  8
LPU
 10
1929.2125842851
 20
1526.178341694609
 30
0.0
  0
VERTEX
  5
532
  8
LPU
 10
1930.517315804563
 20
1528.137665980967
 30
0.0
  0
VERTEX
  5
533
  8
LPU
 10
1931.809710853177
 20
1530.105149407915
 30
0.0
  0
VERTEX
  5
534
  8
LPU
 10
1933.089718409397
 20
1532.080714302575
 30
0.0
  0
VERTEX
  5
535
  8
LPU
 10
1934.357287940718
 20
1534.064282673027
 30
0.0
  0
VERTEX
  5
536
  8
LPU
 10
1935.612369405665
 20
1536.055776211391
 30
0.0
  0
VERTEX
  5
537
  8
LPU
 10
1936.85491325577
 20
1538.055116296909
 30
0.0
  0
VERTEX
  5
538
  8
LPU
 10
1938.08487043753
 20
1540.06222399906
 30
0.0
  0
VERTEX
  5
539
  8
LPU
 10
1939.30219239434
 20
1542.077020080667
 30
0.0
  0
VERTEX
  5
53A
  8
LPU
 10
1939.377482311472
 20
1542.203420388194
 30
0.0
  0
SEQEND
  5
E33
  8
LPU
  0
POLYLINE
  5
BA
  8
LPU
 66
     1
 10
0.0
 20
0.0
 30
0.0
  0
VERTEX
  5
53B
  8
LPU
 10
1948.440919588875
 20
1558.203386373864
 30
0.0
  0
VERTEX
  5
53C
  8
LPU
 10
1948.580238635244
 20
1558.462563226167
 30
0.0
  0
VERTEX
  5
53D
  8
LPU
 10
1949.681741442093
 20
1560.542940010189
 30
0.0
  0
VERTEX
  5
53E
  8
LPU
 10
1950.770151199383
 20
1562.630196630068
 30
0.0
  0
VERTEX
  5
53F
  8
LPU
 10
1951.845424938561
 20
1564.724250684487
 30
0.0
  0
VERTEX
  5
540
  8
LPU
 10
1952.907520209659
 20
1566.825019503778
 30
0.0
  0
VERTEX
  5
541
  8
LPU
 10
1953.956395082977
 20
1568.932420153184
 30
0.0
  0
VERTEX
  5
542
  8
LPU
 10
1954.99200815073
 20
1571.046369436136
 30
0.0
  0
VERTEX
  5
543
  8
LPU
 10
1956.014318528686
 20
1573.166783897537
 30
0.0
  0
VERTEX
  5
544
  8
LPU
 10
1956.707983567442
 20
1574.628956099083
 30
0.0
  0
SEQEND
  5
E34
  8
LPU
  0
POLYLINE
  5
BB
  8
LPU
 66
     1
 10
0.0
 20
0.0
 30
0.0
  0
VERTEX
  5
545
  8
LPU
 10
1964.159589417824
 20
1591.440150989926
 30
0.0
  0
VERTEX
  5
546
  8
LPU
 10
1964.610006191918
 20
1592.527553274665
 30
0.0
  0
VERTEX
  5
547
  8
LPU
 10
1965.497157348219
 20
1594.707974982241
 30
0.0
  0
VERTEX
  5
548
  8
LPU
 10
1966.370591089422
 20
1596.893927748594
 30
0.0
  0
VERTEX
  5
549
  8
LPU
 10
1967.230272933857
 20
1599.08532527605
 30
0.0
  0
VERTEX
  5
54A
  8
LPU
 10
1968.076168942758
 20
1601.282081051989
 30
0.0
  0
VERTEX
  5
54B
  8
LPU
 10
1968.908245721599
 20
1603.484108352253
 30
0.0
  0
VERTEX
  5
54C
  8
LPU
 10
1969.726470421413
 20
1605.691320244575
 30
0.0
  0
VERTEX
  5
54D
  8
LPU
 10
1970.530810740089
 20
1607.903629592009
 30
0.0
  0
VERTEX
  5
54E
  8
LPU
 10
1971.32123492365
 20
1610.120949056371
 30
0.0
  0
VERTEX
  5
54F
  8
LPU
 10
1972.097711767503
 20
1612.343191101683
 30
0.0
  0
VERTEX
  5
550
  8
LPU
 10
1972.86021061767
 20
1614.570267997637
 30
0.0
  0
VERTEX
  5
551
  8
LPU
 10
1973.608701372003
 20
1616.802091823048
 30
0.0
  0
VERTEX
  5
552
  8
LPU
 10
1974.343154481368
 20
1619.038574469334
 30
0.0
  0
VERTEX
  5
553
  8
LPU
 10
1975.063540950815
 20
1621.279627643989
 30
0.0
  0
VERTEX
  5
554
  8
LPU
 10
1975.769832340718
 20
1623.525162874072
 30
0.0
  0
VERTEX
  5
555
  8
LPU
 10
1976.462000767904
 20
1625.775091509696
 30
0.0
  0
VERTEX
  5
556
  8
LPU
 10
1977.140018906748
 20
1628.029324727531
 30
0.0
  0
VERTEX
  5
557
  8
LPU
 10
1977.803859990255
 20
1630.287773534311
 30
0.0
  0
VERTEX
  5
558
  8
LPU
 10
1978.453497811116
 20
1632.550348770342
 30
0.0
  0
VERTEX
  5
559
  8
LPU
 10
1979.088906722741
 20
1634.816961113029
 30
0.0
  0
VERTEX
  5
55A
  8
LPU
 10
1979.710061640275
 20
1637.087521080398
 30
0.0
  0
VERTEX
  5
55B
  8
LPU
 10
1980.316938041585
 20
1639.361939034628
 30
0.0
  0
VERTEX
  5
55C
  8
LPU
 10
1980.90951196823
 20
1641.640125185595
 30
0.0
  0
VERTEX
  5
55D
  8
LPU
 10
1981.487760026406
 20
1643.921989594408
 30
0.0
  0
VERTEX
  5
55E
  8
LPU
 10
1982.051659387871
 20
1646.207442176969
 30
0.0
  0
VERTEX
  5
55F
  8
LPU
 10
1982.601187790842
 20
1648.496392707523
 30
0.0
  0
VERTEX
  5
560
  8
LPU
 10
1983.13632354088
 20
1650.788750822222
 30
0.0
  0
VERTEX
  5
561
  8
LPU
 10
1983.65704551174
 20
1653.084426022693
 30
0.0
  0
VERTEX
  5
562
  8
LPU
 10
1984.163333146212
 20
1655.38332767961
 30
0.0
  0
VERTEX
  5
563
  8
LPU
 10
1984.655166456927
 20
1657.685365036271
 30
0.0
  0
VERTEX
  5
564
  8
LPU
 10
1985.132526027147
 20
1659.990447212185
 30
0.0
  0
VERTEX
  5
565
  8
LPU
 10
1985.595393011534
 20
1662.298483206653
 30
0.0
  0
VERTEX
  5
566
  8
LPU
 10
1986.043749136892
 20
1664.609381902366
 30
0.0
  0
VERTEX
  5
567
  8
LPU
 10
1986.477576702889
 20
1666.923052069001
 30
0.0
  0
VERTEX
  5
568
  8
LPU
 10
1986.896858582756
 20
1669.23940236682
 30
0.0
  0
VERTEX
  5
569
  8
LPU
 10
1987.301578223961
 20
1671.558341350282
 30
0.0
  0
VERTEX
  5
56A
  8
LPU
 10
1987.691719648866
 20
1673.879777471644
 30
0.0
  0
VERTEX
  5
56B
  8
LPU
 10
1988.067267455357
 20
1676.203619084585
 30
0.0
  0
VERTEX
  5
56C
  8
LPU
 10
1988.428206817448
 20
1678.529774447815
 30
0.0
  0
VERTEX
  5
56D
  8
LPU
 10
1988.623009943436
 20
1679.839486668315
 30
0.0
  0
SEQEND
  5
E35
  8
LPU
  0
POLYLINE
  5
BC
  8
LPU
 66
     1
 10
0.0
 20
0.0
 30
0.0
  0
VERTEX
  5
56E
  8
LPU
 10
1990.87406348587
 20
1698.089838774482
 30
0.0
  0
VERTEX
  5
56F
  8
LPU
 10
1991.017120689932
 20
1699.554111827126
 30
0.0
  0
VERTEX
  5
570
  8
LPU
 10
1991.231287316878
 20
1701.898340624171
 30
0.0
  0
VERTEX
  5
571
  8
LPU
 10
1991.430720589338
 20
1704.243868787897
 30
0.0
  0
VERTEX
  5
572
  8
LPU
 10
1991.615412634028
 20
1706.590603720867
 30
0.0
  0
VERTEX
  5
573
  8
LPU
 10
1991.785356159622
 20
1708.938452778005
 30
0.0
  0
VERTEX
  5
574
  8
LPU
 10
1991.94054445704
 20
1711.28732327025
 30
0.0
  0
VERTEX
  5
575
  8
LPU
 10
1992.080971399716
 20
1713.637122468216
 30
0.0
  0
VERTEX
  5
576
  8
LPU
 10
1992.206631443833
 20
1715.987757605856
 30
0.0
  0
VERTEX
  5
577
  8
LPU
 10
1992.227422978467
 20
1716.428641033027
 30
0.0
  0
SEQEND
  5
E36
  8
LPU
  0
POLYLINE
  5
BD
  8
LPU
 66
     1
 10
0.0
 20
0.0
 30
0.0
  0
VERTEX
  5
578
  8
LPU
 10
1618.029830651392
 20
2190.596528223471
 30
0.0
  0
VERTEX
  5
579
  8
LPU
 10
1618.029830651392
 20
2076.992707782963
 30
0.0
  0
SEQEND
  5
E37
  8
LPU
  0
POLYLINE
  5
BE
  8
LPU
 66
     1
 10
0.0
 20
0.0
 30
0.0
  0
VERTEX
  5
57A
  8
LPU
 10
1618.029830651392
 20
2058.242707782963
 30
0.0
  0
VERTEX
  5
57B
  8
LPU
 10
1618.029830651392
 20
2039.492707782964
 30
0.0
  0
SEQEND
  5
E38
  8
LPU
  0
POLYLINE
  5
BF
  8
LPU
 66
     1
 10
0.0
 20
0.0
 30
0.0
  0
VERTEX
  5
57C
  8
LPU
 10
1618.029830651392
 20
2020.742707782964
 30
0.0
  0
VERTEX
  5
57D
  8
LPU
 10
1618.029830651392
 20
1926.992707782964
 30
0.0
  0
SEQEND
  5
E39
  8
LPU
  0
POLYLINE
  5
C0
  8
LPU
 66
     1
 10
0.0
 20
0.0
 30
0.0
  0
VERTEX
  5
57E
  8
LPU
 10
1618.029830651392
 20
1908.242707782964
 30
0.0
  0
VERTEX
  5
57F
  8
LPU
 10
1618.029830651392
 20
1889.492707782964
 30
0.0
  0
SEQEND
  5
E3A
  8
LPU
  0
POLYLINE
  5
C1
  8
LPU
 66
     1
 10
0.0
 20
0.0
 30
0.0
  0
VERTEX
  5
580
  8
LPU
 10
1618.029830651392
 20
1870.742707782964
 30
0.0
  0
VERTEX
  5
581
  8
LPU
 10
1618.029830651392
 20
1776.992707782964
 30
0.0
  0
SEQEND
  5
E3B
  8
LPU
  0
POLYLINE
  5
C2
  8
LPU
 66
     1
 10
0.0
 20
0.0
 30
0.0
  0
VERTEX
  5
582
  8
LPU
 10
1618.029830651392
 20
1758.242707782964
 30
0.0
  0
VERTEX
  5
583
  8
LPU
 10
1618.029830651392
 20
1739.492707782964
 30
0.0
  0
SEQEND
  5
E3C
  8
LPU
  0
POLYLINE
  5
C3
  8
LPU
 66
     1
 10
0.0
 20
0.0
 30
0.0
  0
VERTEX
  5
584
  8
LPU
 10
1618.029830651392
 20
1720.742707782964
 30
0.0
  0
VERTEX
  5
585
  8
LPU
 10
1618.029830651392
 20
1626.992707782964
 30
0.0
  0
SEQEND
  5
E3D
  8
LPU
  0
POLYLINE
  5
C4
  8
LPU
 66
     1
 10
0.0
 20
0.0
 30
0.0
  0
VERTEX
  5
586
  8
LPU
 10
1618.029830651392
 20
1608.242707782964
 30
0.0
  0
VERTEX
  5
587
  8
LPU
 10
1618.029830651392
 20
1589.492707782964
 30
0.0
  0
SEQEND
  5
E3E
  8
LPU
  0
POLYLINE
  5
C5
  8
LPU
 66
     1
 10
0.0
 20
0.0
 30
0.0
  0
VERTEX
  5
588
  8
LPU
 10
1618.029830651392
 20
1570.742707782963
 30
0.0
  0
VERTEX
  5
589
  8
LPU
 10
1618.029830651392
 20
1476.992707782963
 30
0.0
  0
SEQEND
  5
E3F
  8
LPU
  0
POLYLINE
  5
C6
  8
LPU
 66
     1
 10
0.0
 20
0.0
 30
0.0
  0
VERTEX
  5
58A
  8
LPU
 10
1618.029830651392
 20
1458.242707782963
 30
0.0
  0
VERTEX
  5
58B
  8
LPU
 10
1618.029830651392
 20
1439.492707782963
 30
0.0
  0
SEQEND
  5
E40
  8
LPU
  0
POLYLINE
  5
C7
  8
LPU
 66
     1
 10
0.0
 20
0.0
 30
0.0
  0
VERTEX
  5
58C
  8
LPU
 10
1618.029830651392
 20
1420.742707782963
 30
0.0
  0
VERTEX
  5
58D
  8
LPU
 10
1618.029830651392
 20
1307.138887342456
 30
0.0
  0
SEQEND
  5
E41
  8
LPU
  0
POLYLINE
  5
C8
  8
LPU
 66
     1
 10
0.0
 20
0.0
 30
0.0
  0
VERTEX
  5
58E
  8
LPU
 10
1138.156976322839
 20
1734.811791411907
 30
0.0
  0
VERTEX
  5
58F
  8
LPU
 10
1223.027694280696
 20
1734.811791411907
 30
0.0
  0
SEQEND
  5
E42
  8
LPU
  0
POLYLINE
  5
C9
  8
LPU
 66
     1
 10
0.0
 20
0.0
 30
0.0
  0
VERTEX
  5
590
  8
LPU
 10
1241.777694280696
 20
1734.811791411907
 30
0.0
  0
VERTEX
  5
591
  8
LPU
 10
1260.527694280696
 20
1734.811791411907
 30
0.0
  0
SEQEND
  5
E43
  8
LPU
  0
POLYLINE
  5
CA
  8
LPU
 66
     1
 10
0.0
 20
0.0
 30
0.0
  0
VERTEX
  5
592
  8
LPU
 10
1279.277694280696
 20
1734.811791411907
 30
0.0
  0
VERTEX
  5
593
  8
LPU
 10
1373.027694280696
 20
1734.811791411907
 30
0.0
  0
SEQEND
  5
E44
  8
LPU
  0
POLYLINE
  5
CB
  8
LPU
 66
     1
 10
0.0
 20
0.0
 30
0.0
  0
VERTEX
  5
594
  8
LPU
 10
1391.777694280696
 20
1734.811791411907
 30
0.0
  0
VERTEX
  5
595
  8
LPU
 10
1410.527694280696
 20
1734.811791411907
 30
0.0
  0
SEQEND
  5
E45
  8
LPU
  0
POLYLINE
  5
CC
  8
LPU
 66
     1
 10
0.0
 20
0.0
 30
0.0
  0
VERTEX
  5
596
  8
LPU
 10
1429.277694280696
 20
1734.811791411907
 30
0.0
  0
VERTEX
  5
597
  8
LPU
 10
1523.027694280696
 20
1734.811791411907
 30
0.0
  0
SEQEND
  5
E46
  8
LPU
  0
POLYLINE
  5
CD
  8
LPU
 66
     1
 10
0.0
 20
0.0
 30
0.0
  0
VERTEX
  5
598
  8
LPU
 10
1541.777694280696
 20
1734.811791411907
 30
0.0
  0
VERTEX
  5
599
  8
LPU
 10
1560.527694280696
 20
1734.811791411907
 30
0.0
  0
SEQEND
  5
E47
  8
LPU
  0
POLYLINE
  5
CE
  8
LPU
 66
     1
 10
0.0
 20
0.0
 30
0.0
  0
VERTEX
  5
59A
  8
LPU
 10
1579.277694280696
 20
1734.811791411907
 30
0.0
  0
VERTEX
  5
59B
  8
LPU
 10
1673.027694280696
 20
1734.811791411907
 30
0.0
  0
SEQEND
  5
E48
  8
LPU
  0
POLYLINE
  5
CF
  8
LPU
 66
     1
 10
0.0
 20
0.0
 30
0.0
  0
VERTEX
  5
59C
  8
LPU
 10
1691.777694280696
 20
1734.811791411907
 30
0.0
  0
VERTEX
  5
59D
  8
LPU
 10
1710.527694280696
 20
1734.811791411907
 30
0.0
  0
SEQEND
  5
E49
  8
LPU
  0
POLYLINE
  5
D0
  8
LPU
 66
     1
 10
0.0
 20
0.0
 30
0.0
  0
VERTEX
  5
59E
  8
LPU
 10
1729.277694280696
 20
1734.811791411907
 30
0.0
  0
VERTEX
  5
59F
  8
LPU
 10
1823.027694280696
 20
1734.811791411907
 30
0.0
  0
SEQEND
  5
E4A
  8
LPU
  0
POLYLINE
  5
D1
  8
LPU
 66
     1
 10
0.0
 20
0.0
 30
0.0
  0
VERTEX
  5
5A0
  8
LPU
 10
1841.777694280696
 20
1734.811791411907
 30
0.0
  0
VERTEX
  5
5A1
  8
LPU
 10
1860.527694280696
 20
1734.811791411907
 30
0.0
  0
SEQEND
  5
E4B
  8
LPU
  0
POLYLINE
  5
D2
  8
LPU
 66
     1
 10
0.0
 20
0.0
 30
0.0
  0
VERTEX
  5
5A2
  8
LPU
 10
1879.277694280696
 20
1734.811791411907
 30
0.0
  0
VERTEX
  5
5A3
  8
LPU
 10
1973.027694280697
 20
1734.811791411907
 30
0.0
  0
SEQEND
  5
E4C
  8
LPU
  0
POLYLINE
  5
D3
  8
LPU
 66
     1
 10
0.0
 20
0.0
 30
0.0
  0
VERTEX
  5
5A4
  8
LPU
 10
1991.777694280697
 20
1734.811791411907
 30
0.0
  0
VERTEX
  5
5A5
  8
LPU
 10
2010.527694280697
 20
1734.811791411907
 30
0.0
  0
SEQEND
  5
E4D
  8
LPU
  0
POLYLINE
  5
D4
  8
LPU
 66
     1
 10
0.0
 20
0.0
 30
0.0
  0
VERTEX
  5
5A6
  8
LPU
 10
2029.277694280698
 20
1734.811791411907
 30
0.0
  0
VERTEX
  5
5A7
  8
LPU
 10
2114.148412238555
 20
1734.811791411907
 30
0.0
  0
SEQEND
  5
E4E
  8
LPU
  0
POLYLINE
  5
D5
  8
LPU
 66
     1
 10
0.0
 20
0.0
 30
0.0
  0
VERTEX
  5
5A8
  8
LPU
 10
1618.029830651392
 20
1234.866974464488
 30
0.0
  0
VERTEX
  5
5A9
  8
LPU
 10
1618.029830651392
 20
1216.645594812035
 30
0.0
  0
SEQEND
  5
E4F
  8
LPU
  0
POLYLINE
  5
D6
  8
LPU
 66
     1
 10
0.0
 20
0.0
 30
0.0
  0
VERTEX
  5
5AA
  8
LPU
 10
1618.029830651392
 20
1212.145594812035
 30
0.0
  0
VERTEX
  5
5AB
  8
LPU
 10
1618.029830651392
 20
1207.645594812035
 30
0.0
  0
SEQEND
  5
E50
  8
LPU
  0
POLYLINE
  5
D7
  8
LPU
 66
     1
 10
0.0
 20
0.0
 30
0.0
  0
VERTEX
  5
5AC
  8
LPU
 10
1618.029830651392
 20
1203.145594812035
 30
0.0
  0
VERTEX
  5
5AD
  8
LPU
 10
1618.029830651392
 20
1180.645594812035
 30
0.0
  0
SEQEND
  5
E51
  8
LPU
  0
POLYLINE
  5
D8
  8
LPU
 66
     1
 10
0.0
 20
0.0
 30
0.0
  0
VERTEX
  5
5AE
  8
LPU
 10
1618.029830651392
 20
1176.145594812035
 30
0.0
  0
VERTEX
  5
5AF
  8
LPU
 10
1618.029830651392
 20
1171.645594812035
 30
0.0
  0
SEQEND
  5
E52
  8
LPU
  0
POLYLINE
  5
D9
  8
LPU
 66
     1
 10
0.0
 20
0.0
 30
0.0
  0
VERTEX
  5
5B0
  8
LPU
 10
1618.029830651392
 20
1167.145594812035
 30
0.0
  0
VERTEX
  5
5B1
  8
LPU
 10
1618.029830651392
 20
1148.924215159583
 30
0.0
  0
SEQEND
  5
E53
  8
LPU
  0
POLYLINE
  5
DA
  8
LPU
 66
     1
 10
0.0
 20
0.0
 30
0.0
  0
VERTEX
  5
5B2
  8
LPU
 10
1992.679830651394
 20
1157.953657360947
 30
0.0
  0
VERTEX
  5
5B3
  8
LPU
 10
1992.679830651394
 20
1179.975022803197
 30
0.0
  0
SEQEND
  5
E54
  8
LPU
  0
POLYLINE
  5
DB
  8
LPU
 66
     1
 10
0.0
 20
0.0
 30
0.0
  0
VERTEX
  5
5B4
  8
LPU
 10
1992.679830651394
 20
1184.475022803197
 30
0.0
  0
VERTEX
  5
5B5
  8
LPU
 10
1992.679830651394
 20
1188.975022803197
 30
0.0
  0
SEQEND
  5
E55
  8
LPU
  0
POLYLINE
  5
DC
  8
LPU
 66
     1
 10
0.0
 20
0.0
 30
0.0
  0
VERTEX
  5
5B6
  8
LPU
 10
1992.679830651394
 20
1193.475022803197
 30
0.0
  0
VERTEX
  5
5B7
  8
LPU
 10
1992.679830651394
 20
1215.496388245448
 30
0.0
  0
SEQEND
  5
E56
  8
LPU
  0
POLYLINE
  5
DD
  8
LPU
 66
     1
 10
0.0
 20
0.0
 30
0.0
  0
VERTEX
  5
5B8
  8
LPU
 10
1243.379830651392
 20
1226.248640706614
 30
0.0
  0
VERTEX
  5
5B9
  8
LPU
 10
1243.379830651392
 20
1198.745071064879
 30
0.0
  0
SEQEND
  5
E57
  8
LPU
  0
POLYLINE
  5
DE
  8
LPU
 66
     1
 10
0.0
 20
0.0
 30
0.0
  0
VERTEX
  5
5BA
  8
LPU
 10
1243.379830651392
 20
1194.245071064879
 30
0.0
  0
VERTEX
  5
5BB
  8
LPU
 10
1243.379830651392
 20
1189.745071064879
 30
0.0
  0
SEQEND
  5
E58
  8
LPU
  0
POLYLINE
  5
DF
  8
LPU
 66
     1
 10
0.0
 20
0.0
 30
0.0
  0
VERTEX
  5
5BC
  8
LPU
 10
1243.379830651392
 20
1185.245071064879
 30
0.0
  0
VERTEX
  5
5BD
  8
LPU
 10
1243.379830651392
 20
1157.741501423144
 30
0.0
  0
SEQEND
  5
E59
  8
LPU
  0
POLYLINE
  5
E0
  8
LPU
 66
     1
 10
0.0
 20
0.0
 30
0.0
  0
VERTEX
  5
5BE
  8
LPU
 10
751.0425906997175
 20
1716.16582378726
 30
0.0
  0
VERTEX
  5
5BF
  8
LPU
 10
751.0363235215409
 20
1718.160721996325
 30
0.0
  0
VERTEX
  5
5C0
  8
LPU
 10
751.0175222344292
 20
1720.155541450224
 30
0.0
  0
VERTEX
  5
5C1
  8
LPU
 10
750.9861875806243
 20
1722.150203396902
 30
0.0
  0
VERTEX
  5
5C2
  8
LPU
 10
750.9423207971654
 20
1724.144629090519
 30
0.0
  0
VERTEX
  5
5C3
  8
LPU
 10
750.8859236158373
 20
1726.138739794565
 30
0.0
  0
VERTEX
  5
5C4
  8
LPU
 10
750.8169982631046
 20
1728.132456784964
 30
0.0
  0
VERTEX
  5
5C5
  8
LPU
 10
750.7355474600222
 20
1730.125701353182
 30
0.0
  0
VERTEX
  5
5C6
  8
LPU
 10
750.6415744221281
 20
1732.118394809337
 30
0.0
  0
VERTEX
  5
5C7
  8
LPU
 10
750.5350828593171
 20
1734.110458485303
 30
0.0
  0
VERTEX
  5
5C8
  8
LPU
 10
750.4160769756936
 20
1736.101813737817
 30
0.0
  0
VERTEX
  5
5C9
  8
LPU
 10
750.2845614694065
 20
1738.092381951584
 30
0.0
  0
VERTEX
  5
5CA
  8
LPU
 10
750.1405415324625
 20
1740.082084542378
 30
0.0
  0
VERTEX
  5
5CB
  8
LPU
 10
749.984022850522
 20
1742.07084296015
 30
0.0
  0
VERTEX
  5
5CC
  8
LPU
 10
749.8150116026748
 20
1744.058578692121
 30
0.0
  0
VERTEX
  5
5CD
  8
LPU
 10
749.6335144611953
 20
1746.045213265888
 30
0.0
  0
VERTEX
  5
5CE
  8
LPU
 10
749.4395385912803
 20
1748.03066825252
 30
0.0
  0
VERTEX
  5
5CF
  8
LPU
 10
749.2330916507647
 20
1750.014865269655
 30
0.0
  0
VERTEX
  5
5D0
  8
LPU
 10
749.0141817898202
 20
1751.99772598459
 30
0.0
  0
VERTEX
  5
5D1
  8
LPU
 10
748.7828176506332
 20
1753.979172117381
 30
0.0
  0
VERTEX
  5
5D2
  8
LPU
 10
748.5390083670641
 20
1755.959125443926
 30
0.0
  0
VERTEX
  5
5D3
  8
LPU
 10
748.2827635642859
 20
1757.93750779906
 30
0.0
  0
VERTEX
  5
5D4
  8
LPU
 10
748.0140933584044
 20
1759.914241079632
 30
0.0
  0
VERTEX
  5
5D5
  8
LPU
 10
747.7330083560591
 20
1761.8892472476
 30
0.0
  0
VERTEX
  5
5D6
  8
LPU
 10
747.4395196540052
 20
1763.8624483331
 30
0.0
  0
VERTEX
  5
5D7
  8
LPU
 10
747.1336388386737
 20
1765.833766437533
 30
0.0
  0
VERTEX
  5
5D8
  8
LPU
 10
746.8153779857155
 20
1767.803123736635
 30
0.0
  0
VERTEX
  5
5D9
  8
LPU
 10
746.4847496595244
 20
1769.770442483553
 30
0.0
  0
VERTEX
  5
5DA
  8
LPU
 10
746.1417669127402
 20
1771.73564501191
 30
0.0
  0
VERTEX
  5
5DB
  8
LPU
 10
745.7864432857345
 20
1773.698653738876
 30
0.0
  0
VERTEX
  5
5DC
  8
LPU
 10
745.418792806076
 20
1775.659391168227
 30
0.0
  0
VERTEX
  5
5DD
  8
LPU
 10
745.038829987976
 20
1777.617779893408
 30
0.0
  0
VERTEX
  5
5DE
  8
LPU
 10
744.6465698317159
 20
1779.573742600584
 30
0.0
  0
VERTEX
  5
5DF
  8
LPU
 10
744.2420278230547
 20
1781.527202071697
 30
0.0
  0
VERTEX
  5
5E0
  8
LPU
 10
743.8252199326189
 20
1783.478081187512
 30
0.0
  0
VERTEX
  5
5E1
  8
LPU
 10
743.3961626152698
 20
1785.426302930662
 30
0.0
  0
VERTEX
  5
5E2
  8
LPU
 10
742.9548728094555
 20
1787.371790388688
 30
0.0
  0
VERTEX
  5
5E3
  8
LPU
 10
742.5013679365425
 20
1789.314466757077
 30
0.0
  0
VERTEX
  5
5E4
  8
LPU
 10
742.0356659001263
 20
1791.254255342292
 30
0.0
  0
VERTEX
  5
5E5
  8
LPU
 10
741.557785085326
 20
1793.191079564802
 30
0.0
  0
VERTEX
  5
5E6
  8
LPU
 10
741.0677443580578
 20
1795.124862962101
 30
0.0
  0
VERTEX
  5
5E7
  8
LPU
 10
740.5655630642905
 20
1797.055529191734
 30
0.0
  0
VERTEX
  5
5E8
  8
LPU
 10
740.0512610292817
 20
1798.983002034302
 30
0.0
  0
VERTEX
  5
5E9
  8
LPU
 10
739.5248585567956
 20
1800.907205396479
 30
0.0
  0
VERTEX
  5
5EA
  8
LPU
 10
738.9863764282995
 20
1802.82806331401
 30
0.0
  0
VERTEX
  5
5EB
  8
LPU
 10
738.4358359021469
 20
1804.745499954715
 30
0.0
  0
VERTEX
  5
5EC
  8
LPU
 10
737.8732587127342
 20
1806.659439621477
 30
0.0
  0
VERTEX
  5
5ED
  8
LPU
 10
737.298667069646
 20
1808.569806755236
 30
0.0
  0
VERTEX
  5
5EE
  8
LPU
 10
736.7120836567765
 20
1810.476525937968
 30
0.0
  0
VERTEX
  5
5EF
  8
LPU
 10
736.666041193289
 20
1810.622910242406
 30
0.0
  0
SEQEND
  5
E5A
  8
LPU
  0
POLYLINE
  5
E1
  8
LPU
 66
     1
 10
0.0
 20
0.0
 30
0.0
  0
VERTEX
  5
5F0
  8
LPU
 10
730.4089991027924
 20
1828.752403023106
 30
0.0
  0
VERTEX
  5
5F1
  8
LPU
 10
730.1920299296917
 20
1829.326595278717
 30
0.0
  0
VERTEX
  5
5F2
  8
LPU
 10
729.4751689051993
 20
1831.188252715953
 30
0.0
  0
VERTEX
  5
5F3
  8
LPU
 10
728.746624969237
 20
1833.045369264645
 30
0.0
  0
VERTEX
  5
5F4
  8
LPU
 10
728.0064268834722
 20
1834.897871609011
 30
0.0
  0
VERTEX
  5
5F5
  8
LPU
 10
727.2546038696578
 20
1836.745686615431
 30
0.0
  0
VERTEX
  5
5F6
  8
LPU
 10
726.4911856084786
 20
1838.588741335333
 30
0.0
  0
VERTEX
  5
5F7
  8
LPU
 10
725.7162022383811
 20
1840.426963008071
 30
0.0
  0
VERTEX
  5
5F8
  8
LPU
 10
724.9296843543814
 20
1842.260279063802
 30
0.0
  0
VERTEX
  5
5F9
  8
LPU
 10
724.1316630068586
 20
1844.088617126348
 30
0.0
  0
VERTEX
  5
5FA
  8
LPU
 10
723.3221697003294
 20
1845.91190501605
 30
0.0
  0
VERTEX
  5
5FB
  8
LPU
 10
723.0695748362912
 20
1846.471340627304
 30
0.0
  0
SEQEND
  5
E5B
  8
LPU
  0
POLYLINE
  5
E2
  8
LPU
 66
     1
 10
0.0
 20
0.0
 30
0.0
  0
VERTEX
  5
5FC
  8
LPU
 10
714.6744844439452
 20
1863.715224804369
 30
0.0
  0
VERTEX
  5
5FD
  8
LPU
 10
714.603532047772
 20
1863.851291076853
 30
0.0
  0
VERTEX
  5
5FE
  8
LPU
 10
713.6700550928149
 20
1865.614322249753
 30
0.0
  0
VERTEX
  5
5FF
  8
LPU
 10
712.7255191852189
 20
1867.37145345183
 30
0.0
  0
VERTEX
  5
600
  8
LPU
 10
711.769961613644
 20
1869.122615314554
 30
0.0
  0
VERTEX
  5
601
  8
LPU
 10
710.803420101867
 20
1870.867738705053
 30
0.0
  0
VERTEX
  5
602
  8
LPU
 10
709.8259328072918
 20
1872.606754728842
 30
0.0
  0
VERTEX
  5
603
  8
LPU
 10
708.837538319443
 20
1874.339594732548
 30
0.0
  0
VERTEX
  5
604
  8
LPU
 10
707.8382756584424
 20
1876.066190306614
 30
0.0
  0
VERTEX
  5
605
  8
LPU
 10
706.8281842734696
 20
1877.786473288003
 30
0.0
  0
VERTEX
  5
606
  8
LPU
 10
705.8073040412019
 20
1879.500375762888
 30
0.0
  0
VERTEX
  5
607
  8
LPU
 10
704.7756752642435
 20
1881.207830069335
 30
0.0
  0
VERTEX
  5
608
  8
LPU
 10
703.7333386695318
 20
1882.908768799971
 30
0.0
  0
VERTEX
  5
609
  8
LPU
 10
702.6803354067313
 20
1884.603124804648
 30
0.0
  0
VERTEX
  5
60A
  8
LPU
 10
701.6167070466072
 20
1886.290831193091
 30
0.0
  0
VERTEX
  5
60B
  8
LPU
 10
700.542495579386
 20
1887.971821337543
 30
0.0
  0
VERTEX
  5
60C
  8
LPU
 10
699.4577434130974
 20
1889.64602887539
 30
0.0
  0
VERTEX
  5
60D
  8
LPU
 10
698.3624933718993
 20
1891.313387711786
 30
0.0
  0
VERTEX
  5
60E
  8
LPU
 10
697.256788694388
 20
1892.973832022259
 30
0.0
  0
VERTEX
  5
60F
  8
LPU
 10
696.1406730318906
 20
1894.627296255311
 30
0.0
  0
VERTEX
  5
610
  8
LPU
 10
695.014190446743
 20
1896.273715135005
 30
0.0
  0
VERTEX
  5
611
  8
LPU
 10
693.8773854105484
 20
1897.913023663542
 30
0.0
  0
VERTEX
  5
612
  8
LPU
 10
692.7303028024232
 20
1899.54515712383
 30
0.0
  0
VERTEX
  5
613
  8
LPU
 10
691.5729879072246
 20
1901.170051082033
 30
0.0
  0
VERTEX
  5
614
  8
LPU
 10
690.4054864137631
 20
1902.78764139012
 30
0.0
  0
VERTEX
  5
615
  8
LPU
 10
689.2278444129984
 20
1904.397864188396
 30
0.0
  0
VERTEX
  5
616
  8
LPU
 10
688.0401083962206
 20
1906.000655908022
 30
0.0
  0
VERTEX
  5
617
  8
LPU
 10
686.8423252532136
 20
1907.595953273525
 30
0.0
  0
VERTEX
  5
618
  8
LPU
 10
685.6345422704048
 20
1909.183693305297
 30
0.0
  0
VERTEX
  5
619
  8
LPU
 10
684.4168071289989
 20
1910.76381332208
 30
0.0
  0
VERTEX
  5
61A
  8
LPU
 10
683.1891679030937
 20
1912.336250943441
 30
0.0
  0
VERTEX
  5
61B
  8
LPU
 10
681.9516730577839
 20
1913.900944092235
 30
0.0
  0
VERTEX
  5
61C
  8
LPU
 10
680.7043714472472
 20
1915.457830997057
 30
0.0
  0
VERTEX
  5
61D
  8
LPU
 10
679.4473123128153
 20
1917.006850194677
 30
0.0
  0
VERTEX
  5
61E
  8
LPU
 10
678.1805452810304
 20
1918.547940532469
 30
0.0
  0
VERTEX
  5
61F
  8
LPU
 10
676.9041203616857
 20
1920.081041170825
 30
0.0
  0
VERTEX
  5
620
  8
LPU
 10
675.618087945852
 20
1921.606091585558
 30
0.0
  0
VERTEX
  5
621
  8
LPU
 10
674.3224988038864
 20
1923.123031570289
 30
0.0
  0
VERTEX
  5
622
  8
LPU
 10
673.0174040834302
 20
1924.631801238823
 30
0.0
  0
VERTEX
  5
623
  8
LPU
 10
671.7028553073881
 20
1926.132341027519
 30
0.0
  0
VERTEX
  5
624
  8
LPU
 10
670.378904371895
 20
1927.624591697635
 30
0.0
  0
VERTEX
  5
625
  8
LPU
 10
669.0456035442669
 20
1929.108494337668
 30
0.0
  0
VERTEX
  5
626
  8
LPU
 10
667.7030054609372
 20
1930.583990365685
 30
0.0
  0
VERTEX
  5
627
  8
LPU
 10
666.35116312538
 20
1932.051021531628
 30
0.0
  0
VERTEX
  5
628
  8
LPU
 10
664.9901299060152
 20
1933.509529919618
 30
0.0
  0
VERTEX
  5
629
  8
LPU
 10
663.6199595341045
 20
1934.959457950243
 30
0.0
  0
VERTEX
  5
62A
  8
LPU
 10
662.2407061016274
 20
1936.400748382825
 30
0.0
  0
VERTEX
  5
62B
  8
LPU
 10
660.8524240591485
 20
1937.833344317687
 30
0.0
  0
VERTEX
  5
62C
  8
LPU
 10
659.4551682136653
 20
1939.257189198394
 30
0.0
  0
VERTEX
  5
62D
  8
LPU
 10
658.0489937264472
 20
1940.672226813987
 30
0.0
  0
SEQEND
  5
E5C
  8
LPU
  0
POLYLINE
  5
E3
  8
LPU
 66
     1
 10
0.0
 20
0.0
 30
0.0
  0
VERTEX
  5
62E
  8
LPU
 10
644.0830505054071
 20
1953.816876496662
 30
0.0
  0
VERTEX
  5
62F
  8
LPU
 10
643.5091079399765
 20
1954.32608839493
 30
0.0
  0
VERTEX
  5
630
  8
LPU
 10
642.0085681512808
 20
1955.640637170972
 30
0.0
  0
VERTEX
  5
631
  8
LPU
 10
640.4997984827462
 20
1956.945731891429
 30
0.0
  0
VERTEX
  5
632
  8
LPU
 10
638.9828584980157
 20
1958.241321033394
 30
0.0
  0
VERTEX
  5
633
  8
LPU
 10
637.4578080832825
 20
1959.527353449228
 30
0.0
  0
VERTEX
  5
634
  8
LPU
 10
635.9247074449261
 20
1960.803778368572
 30
0.0
  0
VERTEX
  5
635
  8
LPU
 10
634.3836171071341
 20
1962.070545400358
 30
0.0
  0
VERTEX
  5
636
  8
LPU
 10
632.8345979095145
 20
1963.327604534789
 30
0.0
  0
VERTEX
  5
637
  8
LPU
 10
631.277711004693
 20
1964.574906145326
 30
0.0
  0
VERTEX
  5
638
  8
LPU
 10
629.7130178558982
 20
1965.812400990636
 30
0.0
  0
VERTEX
  5
639
  8
LPU
 10
629.3501476355859
 20
1966.095702350459
 30
0.0
  0
SEQEND
  5
E5D
  8
LPU
  0
POLYLINE
  5
E4
  8
LPU
 66
     1
 10
0.0
 20
0.0
 30
0.0
  0
VERTEX
  5
63A
  8
LPU
 10
613.9026833595469
 20
1977.462530451792
 30
0.0
  0
VERTEX
  5
63B
  8
LPU
 10
613.6504820474622
 20
1977.637423534285
 30
0.0
  0
VERTEX
  5
63C
  8
LPU
 10
612.0040631677687
 20
1978.763906119433
 30
0.0
  0
VERTEX
  5
63D
  8
LPU
 10
610.3505989347168
 20
1979.88002178193
 30
0.0
  0
VERTEX
  5
63E
  8
LPU
 10
608.6901546242436
 20
1980.985726459441
 30
0.0
  0
VERTEX
  5
63F
  8
LPU
 10
607.0227957878476
 20
1982.080976500639
 30
0.0
  0
VERTEX
  5
640
  8
LPU
 10
605.3485882500001
 20
1983.165728666928
 30
0.0
  0
VERTEX
  5
641
  8
LPU
 10
603.6675981055487
 20
1984.239940134149
 30
0.0
  0
VERTEX
  5
642
  8
LPU
 10
601.9798917171051
 20
1985.303568494273
 30
0.0
  0
VERTEX
  5
643
  8
LPU
 10
600.2855357124286
 20
1986.356571757074
 30
0.0
  0
VERTEX
  5
644
  8
LPU
 10
598.5845969817924
 20
1987.398908351786
 30
0.0
  0
VERTEX
  5
645
  8
LPU
 10
596.8771426753456
 20
1988.430537128744
 30
0.0
  0
VERTEX
  5
646
  8
LPU
 10
595.16324020046
 20
1989.451417361011
 30
0.0
  0
VERTEX
  5
647
  8
LPU
 10
593.4429572190713
 20
1990.461508745984
 30
0.0
  0
VERTEX
  5
648
  8
LPU
 10
591.7163616450055
 20
1991.460771406985
 30
0.0
  0
VERTEX
  5
649
  8
LPU
 10
589.9835216412998
 20
1992.449165894834
 30
0.0
  0
VERTEX
  5
64A
  8
LPU
 10
588.2445056175102
 20
1993.426653189409
 30
0.0
  0
VERTEX
  5
64B
  8
LPU
 10
586.4993822270119
 20
1994.393194701186
 30
0.0
  0
VERTEX
  5
64C
  8
LPU
 10
584.7482203642878
 20
1995.348752272761
 30
0.0
  0
VERTEX
  5
64D
  8
LPU
 10
582.9910891622103
 20
1996.293288180357
 30
0.0
  0
VERTEX
  5
64E
  8
LPU
 10
581.2280579893102
 20
1997.226765135314
 30
0.0
  0
VERTEX
  5
64F
  8
LPU
 10
579.4591964470396
 20
1998.149146285559
 30
0.0
  0
VERTEX
  5
650
  8
LPU
 10
577.6845743670233
 20
1999.060395217066
 30
0.0
  0
VERTEX
  5
651
  8
LPU
 10
575.9042618083024
 20
1999.960475955286
 30
0.0
  0
VERTEX
  5
652
  8
LPU
 10
574.1183290545684
 20
2000.849352966572
 30
0.0
  0
VERTEX
  5
653
  8
LPU
 10
572.3268466113884
 20
2001.726991159582
 30
0.0
  0
VERTEX
  5
654
  8
LPU
 10
570.5298852034218
 20
2002.593355886664
 30
0.0
  0
VERTEX
  5
655
  8
LPU
 10
568.7275157716278
 20
2003.448412945221
 30
0.0
  0
VERTEX
  5
656
  8
LPU
 10
566.9198094704657
 20
2004.292128579064
 30
0.0
  0
VERTEX
  5
657
  8
LPU
 10
565.1068376650851
 20
2005.124469479745
 30
0.0
  0
VERTEX
  5
658
  8
LPU
 10
563.2886719285082
 20
2005.945402787871
 30
0.0
  0
VERTEX
  5
659
  8
LPU
 10
561.4653840388053
 20
2006.7548960944
 30
0.0
  0
VERTEX
  5
65A
  8
LPU
 10
559.6370459762602
 20
2007.552917441923
 30
0.0
  0
VERTEX
  5
65B
  8
LPU
 10
557.8037299205291
 20
2008.339435325923
 30
0.0
  0
VERTEX
  5
65C
  8
LPU
 10
555.9655082477907
 20
2009.114418696021
 30
0.0
  0
VERTEX
  5
65D
  8
LPU
 10
554.1224535278891
 20
2009.8778369572
 30
0.0
  0
VERTEX
  5
65E
  8
LPU
 10
552.2746385214689
 20
2010.629659971014
 30
0.0
  0
VERTEX
  5
65F
  8
LPU
 10
550.4221361771026
 20
2011.369858056779
 30
0.0
  0
VERTEX
  5
660
  8
LPU
 10
548.5650196284105
 20
2012.098401992741
 30
0.0
  0
VERTEX
  5
661
  8
LPU
 10
546.7033621911744
 20
2012.815263017234
 30
0.0
  0
VERTEX
  5
662
  8
LPU
 10
544.837237360442
 20
2013.52041282981
 30
0.0
  0
VERTEX
  5
663
  8
LPU
 10
542.9667188076264
 20
2014.213823592364
 30
0.0
  0
VERTEX
  5
664
  8
LPU
 10
541.0918803775974
 20
2014.895467930226
 30
0.0
  0
VERTEX
  5
665
  8
LPU
 10
539.2127960857656
 20
2015.565318933244
 30
0.0
  0
VERTEX
  5
666
  8
LPU
 10
537.3295401151615
 20
2016.223350156847
 30
0.0
  0
VERTEX
  5
667
  8
LPU
 10
535.4421868135064
 20
2016.86953562309
 30
0.0
  0
VERTEX
  5
668
  8
LPU
 10
533.5508106902766
 20
2017.503849821678
 30
0.0
  0
VERTEX
  5
669
  8
LPU
 10
531.6554864137631
 20
2018.12626771097
 30
0.0
  0
VERTEX
  5
66A
  8
LPU
 10
529.7562888081231
 20
2018.736764718976
 30
0.0
  0
VERTEX
  5
66B
  8
LPU
 10
527.999677154867
 20
2019.28927428083
 30
0.0
  0
SEQEND
  5
E5E
  8
LPU
  0
POLYLINE
  5
E5
  8
LPU
 66
     1
 10
0.0
 20
0.0
 30
0.0
  0
VERTEX
  5
66C
  8
LPU
 10
509.5249411266802
 20
2024.438338611606
 30
0.0
  0
VERTEX
  5
66D
  8
LPU
 10
508.63102225475
 20
2024.658898987668
 30
0.0
  0
VERTEX
  5
66E
  8
LPU
 10
506.691233669535
 20
2025.124601024084
 30
0.0
  0
VERTEX
  5
66F
  8
LPU
 10
504.7485573011459
 20
2025.578105896997
 30
0.0
  0
VERTEX
  5
670
  8
LPU
 10
502.8030698431196
 20
2026.019395702811
 30
0.0
  0
VERTEX
  5
671
  8
LPU
 10
500.8548480999698
 20
2026.44845302016
 30
0.0
  0
VERTEX
  5
672
  8
LPU
 10
498.9039689841547
 20
2026.865260910596
 30
0.0
  0
VERTEX
  5
673
  8
LPU
 10
496.9505095130417
 20
2027.269802919257
 30
0.0
  0
VERTEX
  5
674
  8
LPU
 10
494.9945468058656
 20
2027.662063075517
 30
0.0
  0
VERTEX
  5
675
  8
LPU
 10
493.036158080685
 20
2028.042025893618
 30
0.0
  0
VERTEX
  5
676
  8
LPU
 10
491.0754206513336
 20
2028.409676373276
 30
0.0
  0
VERTEX
  5
677
  8
LPU
 10
490.7734193087265
 20
2028.464341546661
 30
0.0
  0
SEQEND
  5
E5F
  8
LPU
  0
POLYLINE
  5
E6
  8
LPU
 66
     1
 10
0.0
 20
0.0
 30
0.0
  0
VERTEX
  5
678
  8
LPU
 10
471.8128513359675
 20
2031.349787057351
 30
0.0
  0
VERTEX
  5
679
  8
LPU
 10
471.3559390298387
 20
2031.406050738175
 30
0.0
  0
VERTEX
  5
67A
  8
LPU
 10
469.3744928970477
 20
2031.637414877361
 30
0.0
  0
VERTEX
  5
67B
  8
LPU
 10
467.3916321821125
 20
2031.856324738306
 30
0.0
  0
VERTEX
  5
67C
  8
LPU
 10
465.4074351649783
 20
2032.062771678821
 30
0.0
  0
VERTEX
  5
67D
  8
LPU
 10
463.4219801783456
 20
2032.256747548737
 30
0.0
  0
VERTEX
  5
67E
  8
LPU
 10
461.4353456045783
 20
2032.438244690216
 30
0.0
  0
VERTEX
  5
67F
  8
LPU
 10
459.4476098726077
 20
2032.607255938063
 30
0.0
  0
VERTEX
  5
680
  8
LPU
 10
457.4588514548363
 20
2032.763774620004
 30
0.0
  0
VERTEX
  5
681
  8
LPU
 10
455.4691488640415
 20
2032.907794556948
 30
0.0
  0
VERTEX
  5
682
  8
LPU
 10
453.4785806502746
 20
2033.039310063235
 30
0.0
  0
VERTEX
  5
683
  8
LPU
 10
451.4872253977601
 20
2033.158315946858
 30
0.0
  0
VERTEX
  5
684
  8
LPU
 10
449.4951617217944
 20
2033.264807509669
 30
0.0
  0
VERTEX
  5
685
  8
LPU
 10
447.5024682656394
 20
2033.358780547563
 30
0.0
  0
VERTEX
  5
686
  8
LPU
 10
445.5092236974219
 20
2033.440231350646
 30
0.0
  0
VERTEX
  5
687
  8
LPU
 10
443.5155067070232
 20
2033.509156703378
 30
0.0
  0
VERTEX
  5
688
  8
LPU
 10
441.5213960029773
 20
2033.565553884707
 30
0.0
  0
VERTEX
  5
689
  8
LPU
 10
439.5269703093595
 20
2033.609420668166
 30
0.0
  0
VERTEX
  5
68A
  8
LPU
 10
437.5323083626822
 20
2033.64075532197
 30
0.0
  0
VERTEX
  5
68B
  8
LPU
 10
435.5374889087825
 20
2033.659556609082
 30
0.0
  0
VERTEX
  5
68C
  8
LPU
 10
433.5425906997175
 20
2033.665823787259
 30
0.0
  0
VERTEX
  5
68D
  8
LPU
 10
431.5476924906525
 20
2033.659556609082
 30
0.0
  0
VERTEX
  5
68E
  8
LPU
 10
429.5528730367532
 20
2033.64075532197
 30
0.0
  0
VERTEX
  5
68F
  8
LPU
 10
427.5582110900755
 20
2033.609420668166
 30
0.0
  0
VERTEX
  5
690
  8
LPU
 10
425.5637853964581
 20
2033.565553884706
 30
0.0
  0
VERTEX
  5
691
  8
LPU
 10
423.5696746924118
 20
2033.509156703378
 30
0.0
  0
VERTEX
  5
692
  8
LPU
 10
421.5759577020135
 20
2033.440231350646
 30
0.0
  0
VERTEX
  5
693
  8
LPU
 10
419.5827131337956
 20
2033.358780547563
 30
0.0
  0
VERTEX
  5
694
  8
LPU
 10
417.5900196776406
 20
2033.264807509669
 30
0.0
  0
VERTEX
  5
695
  8
LPU
 10
415.5979560016749
 20
2033.158315946858
 30
0.0
  0
VERTEX
  5
696
  8
LPU
 10
413.6066007491609
 20
2033.039310063235
 30
0.0
  0
VERTEX
  5
697
  8
LPU
 10
411.616032535394
 20
2032.907794556948
 30
0.0
  0
VERTEX
  5
698
  8
LPU
 10
409.6263299445991
 20
2032.763774620004
 30
0.0
  0
VERTEX
  5
699
  8
LPU
 10
407.6375715268277
 20
2032.607255938063
 30
0.0
  0
VERTEX
  5
69A
  8
LPU
 10
405.6498357948567
 20
2032.438244690216
 30
0.0
  0
VERTEX
  5
69B
  8
LPU
 10
403.6632012210894
 20
2032.256747548736
 30
0.0
  0
VERTEX
  5
69C
  8
LPU
 10
401.6777462344571
 20
2032.062771678821
 30
0.0
  0
VERTEX
  5
69D
  8
LPU
 10
399.6935492173225
 20
2031.856324738306
 30
0.0
  0
VERTEX
  5
69E
  8
LPU
 10
397.7106885023873
 20
2031.637414877361
 30
0.0
  0
VERTEX
  5
69F
  8
LPU
 10
395.7292423695962
 20
2031.406050738175
 30
0.0
  0
VERTEX
  5
6A0
  8
LPU
 10
393.7492890430508
 20
2031.162241454605
 30
0.0
  0
VERTEX
  5
6A1
  8
LPU
 10
391.7709066879174
 20
2030.905996651827
 30
0.0
  0
VERTEX
  5
6A2
  8
LPU
 10
389.7941734073447
 20
2030.637326445946
 30
0.0
  0
VERTEX
  5
6A3
  8
LPU
 10
387.8191672393773
 20
2030.3562414436
 30
0.0
  0
VERTEX
  5
6A4
  8
LPU
 10
385.8459661538768
 20
2030.062752741546
 30
0.0
  0
VERTEX
  5
6A5
  8
LPU
 10
383.8746480494442
 20
2029.756871926215
 30
0.0
  0
VERTEX
  5
6A6
  8
LPU
 10
381.9052907503419
 20
2029.438611073257
 30
0.0
  0
VERTEX
  5
6A7
  8
LPU
 10
379.9379720034244
 20
2029.107982747066
 30
0.0
  0
VERTEX
  5
6A8
  8
LPU
 10
377.9727694750673
 20
2028.765000000281
 30
0.0
  0
VERTEX
  5
6A9
  8
LPU
 10
376.3117620907146
 20
2028.464341546662
 30
0.0
  0
SEQEND
  5
E60
  8
LPU
  0
POLYLINE
  5
E7
  8
LPU
 66
     1
 10
0.0
 20
0.0
 30
0.0
  0
VERTEX
  5
6AA
  8
LPU
 10
357.5602402727604
 20
2024.438338611607
 30
0.0
  0
VERTEX
  5
6AB
  8
LPU
 10
356.5173349221755
 20
2024.181018172867
 30
0.0
  0
VERTEX
  5
6AC
  8
LPU
 10
354.5835515248759
 20
2023.690977445599
 30
0.0
  0
VERTEX
  5
6AD
  8
LPU
 10
352.6528852952433
 20
2023.188796151832
 30
0.0
  0
VERTEX
  5
6AE
  8
LPU
 10
350.7254124526748
 20
2022.674494116823
 30
0.0
  0
VERTEX
  5
6AF
  8
LPU
 10
348.8012090904977
 20
2022.148091644337
 30
0.0
  0
VERTEX
  5
6B0
  8
LPU
 10
346.8803511729661
 20
2021.609609515841
 30
0.0
  0
VERTEX
  5
6B1
  8
LPU
 10
344.9629145322619
 20
2021.059068989688
 30
0.0
  0
VERTEX
  5
6B2
  8
LPU
 10
343.0489748654995
 20
2020.496491800275
 30
0.0
  0
VERTEX
  5
6B3
  8
LPU
 10
341.1386077317406
 20
2019.921900157187
 30
0.0
  0
VERTEX
  5
6B4
  8
LPU
 10
339.2318885490085
 20
2019.335316744318
 30
0.0
  0
VERTEX
  5
6B5
  8
LPU
 10
339.0855042445733
 20
2019.289274280831
 30
0.0
  0
SEQEND
  5
E61
  8
LPU
  0
POLYLINE
  5
E8
  8
LPU
 66
     1
 10
0.0
 20
0.0
 30
0.0
  0
VERTEX
  5
6B6
  8
LPU
 10
320.956011463873
 20
2013.032232190335
 30
0.0
  0
VERTEX
  5
6B7
  8
LPU
 10
320.3818192082599
 20
2012.815263017233
 30
0.0
  0
VERTEX
  5
6B8
  8
LPU
 10
318.520161771024
 20
2012.09840199274
 30
0.0
  0
VERTEX
  5
6B9
  8
LPU
 10
316.6630452223321
 20
2011.369858056778
 30
0.0
  0
VERTEX
  5
6BA
  8
LPU
 10
314.8105428779654
 20
2010.629659971014
 30
0.0
  0
VERTEX
  5
6BB
  8
LPU
 10
312.9627278715452
 20
2009.877836957199
 30
0.0
  0
VERTEX
  5
6BC
  8
LPU
 10
311.1196731516434
 20
2009.11441869602
 30
0.0
  0
VERTEX
  5
6BD
  8
LPU
 10
309.2814514789052
 20
2008.339435325922
 30
0.0
  0
VERTEX
  5
6BE
  8
LPU
 10
307.4481354231739
 20
2007.552917441923
 30
0.0
  0
VERTEX
  5
6BF
  8
LPU
 10
305.619797360629
 20
2006.7548960944
 30
0.0
  0
VERTEX
  5
6C0
  8
LPU
 10
303.7965094709261
 20
2005.945402787871
 30
0.0
  0
VERTEX
  5
6C1
  8
LPU
 10
301.978343734349
 20
2005.124469479745
 30
0.0
  0
VERTEX
  5
6C2
  8
LPU
 10
300.1653719289684
 20
2004.292128579063
 30
0.0
  0
VERTEX
  5
6C3
  8
LPU
 10
298.357665627806
 20
2003.44841294522
 30
0.0
  0
VERTEX
  5
6C4
  8
LPU
 10
296.5552961960125
 20
2002.593355886663
 30
0.0
  0
VERTEX
  5
6C5
  8
LPU
 10
294.7583347880454
 20
2001.726991159581
 30
0.0
  0
VERTEX
  5
6C6
  8
LPU
 10
292.9668523448654
 20
2000.849352966571
 30
0.0
  0
VERTEX
  5
6C7
  8
LPU
 10
291.1809195911314
 20
1999.960475955285
 30
0.0
  0
VERTEX
  5
6C8
  8
LPU
 10
289.4006070324108
 20
1999.060395217065
 30
0.0
  0
VERTEX
  5
6C9
  8
LPU
 10
287.6259849523944
 20
1998.149146285559
 30
0.0
  0
VERTEX
  5
6CA
  8
LPU
 10
285.8571234101237
 20
1997.226765135313
 30
0.0
  0
VERTEX
  5
6CB
  8
LPU
 10
284.0940922372238
 20
1996.293288180356
 30
0.0
  0
VERTEX
  5
6CC
  8
LPU
 10
282.336961035146
 20
1995.34875227276
 30
0.0
  0
VERTEX
  5
6CD
  8
LPU
 10
280.5857991724224
 20
1994.393194701185
 30
0.0
  0
VERTEX
  5
6CE
  8
LPU
 10
278.8406757819239
 20
1993.426653189408
 30
0.0
  0
VERTEX
  5
6CF
  8
LPU
 10
277.1016597581342
 20
1992.449165894833
 30
0.0
  0
VERTEX
  5
6D0
  8
LPU
 10
275.3688197544284
 20
1991.460771406984
 30
0.0
  0
VERTEX
  5
6D1
  8
LPU
 10
273.642224180363
 20
1990.461508745984
 30
0.0
  0
VERTEX
  5
6D2
  8
LPU
 10
271.9219411989743
 20
1989.451417361011
 30
0.0
  0
VERTEX
  5
6D3
  8
LPU
 10
270.2080387240881
 20
1988.430537128743
 30
0.0
  0
VERTEX
  5
6D4
  8
LPU
 10
268.5005844176412
 20
1987.398908351785
 30
0.0
  0
VERTEX
  5
6D5
  8
LPU
 10
266.7996456870051
 20
1986.356571757073
 30
0.0
  0
VERTEX
  5
6D6
  8
LPU
 10
265.1052896823285
 20
1985.303568494273
 30
0.0
  0
VERTEX
  5
6D7
  8
LPU
 10
263.4175832938849
 20
1984.239940134148
 30
0.0
  0
VERTEX
  5
6D8
  8
LPU
 10
261.7365931494332
 20
1983.165728666927
 30
0.0
  0
VERTEX
  5
6D9
  8
LPU
 10
260.0623856115863
 20
1982.080976500639
 30
0.0
  0
VERTEX
  5
6DA
  8
LPU
 10
258.3950267751898
 20
1980.98572645944
 30
0.0
  0
VERTEX
  5
6DB
  8
LPU
 10
256.7345824647168
 20
1979.880021781929
 30
0.0
  0
VERTEX
  5
6DC
  8
LPU
 10
255.0811182316652
 20
1978.763906119432
 30
0.0
  0
VERTEX
  5
6DD
  8
LPU
 10
253.4346993519712
 20
1977.637423534284
 30
0.0
  0
VERTEX
  5
6DE
  8
LPU
 10
251.795390823434
 20
1976.50061849809
 30
0.0
  0
VERTEX
  5
6DF
  8
LPU
 10
250.1632573631464
 20
1975.353535889965
 30
0.0
  0
VERTEX
  5
6E0
  8
LPU
 10
248.5383634049435
 20
1974.196220994766
 30
0.0
  0
VERTEX
  5
6E1
  8
LPU
 10
246.9207730968565
 20
1973.028719501305
 30
0.0
  0
VERTEX
  5
6E2
  8
LPU
 10
245.3105502985804
 20
1971.85107750054
 30
0.0
  0
VERTEX
  5
6E3
  8
LPU
 10
243.7077585789543
 20
1970.663341483762
 30
0.0
  0
VERTEX
  5
6E4
  8
LPU
 10
242.1124612134513
 20
1969.465558340755
 30
0.0
  0
VERTEX
  5
6E5
  8
LPU
 10
240.5247211816795
 20
1968.257775357946
 30
0.0
  0
VERTEX
  5
6E6
  8
LPU
 10
238.9446011648965
 20
1967.04004021654
 30
0.0
  0
VERTEX
  5
6E7
  8
LPU
 10
237.7350337638527
 20
1966.095702350462
 30
0.0
  0
SEQEND
  5
E62
  8
LPU
  0
POLYLINE
  5
E9
  8
LPU
 66
     1
 10
0.0
 20
0.0
 30
0.0
  0
VERTEX
  5
6E8
  8
LPU
 10
223.0021308940313
 20
1953.816876496666
 30
0.0
  0
VERTEX
  5
6E9
  8
LPU
 10
222.0838227893419
 20
1953.002137459436
 30
0.0
  0
VERTEX
  5
6EA
  8
LPU
 10
220.5999201493082
 20
1951.668836631808
 30
0.0
  0
VERTEX
  5
6EB
  8
LPU
 10
219.1244241212912
 20
1950.326238548479
 30
0.0
  0
VERTEX
  5
6EC
  8
LPU
 10
217.6573929553488
 20
1948.974396212921
 30
0.0
  0
VERTEX
  5
6ED
  8
LPU
 10
216.1988845673582
 20
1947.613362993557
 30
0.0
  0
VERTEX
  5
6EE
  8
LPU
 10
214.7489565367337
 20
1946.243192621646
 30
0.0
  0
VERTEX
  5
6EF
  8
LPU
 10
213.3076661041509
 20
1944.863939189169
 30
0.0
  0
VERTEX
  5
6F0
  8
LPU
 10
211.8750701692893
 20
1943.47565714669
 30
0.0
  0
VERTEX
  5
6F1
  8
LPU
 10
210.451225288582
 20
1942.078401301207
 30
0.0
  0
VERTEX
  5
6F2
  8
LPU
 10
209.0361876729908
 20
1940.67222681399
 30
0.0
  0
SEQEND
  5
E63
  8
LPU
  0
POLYLINE
  5
EA
  8
LPU
 66
     1
 10
0.0
 20
0.0
 30
0.0
  0
VERTEX
  5
6F3
  8
LPU
 10
195.8915379903151
 20
1926.70628359295
 30
0.0
  0
VERTEX
  5
6F4
  8
LPU
 10
195.3823260920458
 20
1926.132341027518
 30
0.0
  0
VERTEX
  5
6F5
  8
LPU
 10
194.0677773160041
 20
1924.631801238822
 30
0.0
  0
VERTEX
  5
6F6
  8
LPU
 10
192.7626825955476
 20
1923.123031570288
 30
0.0
  0
VERTEX
  5
6F7
  8
LPU
 10
191.4670934535825
 20
1921.606091585557
 30
0.0
  0
VERTEX
  5
6F8
  8
LPU
 10
190.1810610377483
 20
1920.081041170824
 30
0.0
  0
VERTEX
  5
6F9
  8
LPU
 10
188.9046361184041
 20
1918.547940532468
 30
0.0
  0
VERTEX
  5
6FA
  8
LPU
 10
187.637869086619
 20
1917.006850194676
 30
0.0
  0
VERTEX
  5
6FB
  8
LPU
 10
186.3808099521871
 20
1915.457830997056
 30
0.0
  0
VERTEX
  5
6FC
  8
LPU
 10
185.1335083416502
 20
1913.900944092234
 30
0.0
  0
VERTEX
  5
6FD
  8
LPU
 10
183.8960134963404
 20
1912.33625094344
 30
0.0
  0
VERTEX
  5
6FE
  8
LPU
 10
182.6683742704354
 20
1910.763813322079
 30
0.0
  0
VERTEX
  5
6FF
  8
LPU
 10
181.4506391290292
 20
1909.183693305296
 30
0.0
  0
VERTEX
  5
700
  8
LPU
 10
180.2428561462207
 20
1907.595953273524
 30
0.0
  0
VERTEX
  5
701
  8
LPU
 10
179.0450730032139
 20
1906.000655908021
 30
0.0
  0
VERTEX
  5
702
  8
LPU
 10
177.8573369864362
 20
1904.397864188395
 30
0.0
  0
VERTEX
  5
703
  8
LPU
 10
176.6796949856712
 20
1902.787641390119
 30
0.0
  0
VERTEX
  5
704
  8
LPU
 10
175.5121934922099
 20
1901.170051082032
 30
0.0
  0
VERTEX
  5
705
  8
LPU
 10
174.3548785970115
 20
1899.545157123829
 30
0.0
  0
VERTEX
  5
706
  8
LPU
 10
173.2077959888861
 20
1897.913023663541
 30
0.0
  0
VERTEX
  5
707
  8
LPU
 10
172.0709909526913
 20
1896.273715135004
 30
0.0
  0
VERTEX
  5
708
  8
LPU
 10
170.9445083675437
 20
1894.62729625531
 30
0.0
  0
VERTEX
  5
709
  8
LPU
 10
169.8283927050466
 20
1892.973832022258
 30
0.0
  0
VERTEX
  5
70A
  8
LPU
 10
168.7226880275352
 20
1891.313387711785
 30
0.0
  0
VERTEX
  5
70B
  8
LPU
 10
167.6274379863371
 20
1889.646028875389
 30
0.0
  0
VERTEX
  5
70C
  8
LPU
 10
166.5426858200485
 20
1887.971821337542
 30
0.0
  0
VERTEX
  5
70D
  8
LPU
 10
165.4684743528273
 20
1886.29083119309
 30
0.0
  0
VERTEX
  5
70E
  8
LPU
 10
164.4048459927035
 20
1884.603124804647
 30
0.0
  0
VERTEX
  5
70F
  8
LPU
 10
163.3518427299027
 20
1882.90876879997
 30
0.0
  0
VERTEX
  5
710
  8
LPU
 10
162.309506135191
 20
1881.207830069334
 30
0.0
  0
VERTEX
  5
711
  8
LPU
 10
161.2778773582327
 20
1879.500375762887
 30
0.0
  0
VERTEX
  5
712
  8
LPU
 10
160.256997125965
 20
1877.786473288002
 30
0.0
  0
VERTEX
  5
713
  8
LPU
 10
159.2469057409921
 20
1876.066190306613
 30
0.0
  0
VERTEX
  5
714
  8
LPU
 10
158.2476430799916
 20
1874.339594732547
 30
0.0
  0
VERTEX
  5
715
  8
LPU
 10
157.2592485921427
 20
1872.606754728841
 30
0.0
  0
VERTEX
  5
716
  8
LPU
 10
156.2817612975678
 20
1870.867738705052
 30
0.0
  0
VERTEX
  5
717
  8
LPU
 10
155.3152197857908
 20
1869.122615314554
 30
0.0
  0
VERTEX
  5
718
  8
LPU
 10
154.3596622142159
 20
1867.37145345183
 30
0.0
  0
VERTEX
  5
719
  8
LPU
 10
153.4151263066196
 20
1865.614322249752
 30
0.0
  0
VERTEX
  5
71A
  8
LPU
 10
152.4816493516628
 20
1863.851291076852
 30
0.0
  0
VERTEX
  5
71B
  8
LPU
 10
151.5592682014171
 20
1862.082429534581
 30
0.0
  0
VERTEX
  5
71C
  8
LPU
 10
150.6480192699105
 20
1860.307807454565
 30
0.0
  0
VERTEX
  5
71D
  8
LPU
 10
149.747938531691
 20
1858.527494895844
 30
0.0
  0
VERTEX
  5
71E
  8
LPU
 10
148.8590615204052
 20
1856.74156214211
 30
0.0
  0
VERTEX
  5
71F
  8
LPU
 10
147.9814233273946
 20
1854.95007969893
 30
0.0
  0
VERTEX
  5
720
  8
LPU
 10
147.1150586003132
 20
1853.153118290963
 30
0.0
  0
VERTEX
  5
721
  8
LPU
 10
146.2600015417561
 20
1851.35074885917
 30
0.0
  0
VERTEX
  5
722
  8
LPU
 10
145.4162859079129
 20
1849.543042558008
 30
0.0
  0
VERTEX
  5
723
  8
LPU
 10
144.5839450072313
 20
1847.730070752627
 30
0.0
  0
VERTEX
  5
724
  8
LPU
 10
144.0156065631459
 20
1846.471340627308
 30
0.0
  0
SEQEND
  5
E64
  8
LPU
  0
POLYLINE
  5
EB
  8
LPU
 66
     1
 10
0.0
 20
0.0
 30
0.0
  0
VERTEX
  5
725
  8
LPU
 10
136.6761822966441
 20
1828.75240302311
 30
0.0
  0
VERTEX
  5
726
  8
LPU
 10
136.1880016571663
 20
1827.460470447984
 30
0.0
  0
VERTEX
  5
727
  8
LPU
 10
135.4945908946124
 20
1825.589951895168
 30
0.0
  0
VERTEX
  5
728
  8
LPU
 10
134.8129465567508
 20
1823.715113465139
 30
0.0
  0
VERTEX
  5
729
  8
LPU
 10
134.143095553733
 20
1821.836029173307
 30
0.0
  0
VERTEX
  5
72A
  8
LPU
 10
133.4850643301293
 20
1819.952773202703
 30
0.0
  0
VERTEX
  5
72B
  8
LPU
 10
132.8388788638863
 20
1818.065419901048
 30
0.0
  0
VERTEX
  5
72C
  8
LPU
 10
132.2045646652991
 20
1816.174043777818
 30
0.0
  0
VERTEX
  5
72D
  8
LPU
 10
131.5821467760061
 20
1814.278719501305
 30
0.0
  0
VERTEX
  5
72E
  8
LPU
 10
130.9716497680006
 20
1812.379521895665
 30
0.0
  0
VERTEX
  5
72F
  8
LPU
 10
130.4191402061479
 20
1810.62291024241
 30
0.0
  0
SEQEND
  5
E65
  8
LPU
  0
POLYLINE
  5
EC
  8
LPU
 66
     1
 10
0.0
 20
0.0
 30
0.0
  0
VERTEX
  5
730
  8
LPU
 10
125.2700758753713
 20
1792.148174214224
 30
0.0
  0
VERTEX
  5
731
  8
LPU
 10
125.0495154993087
 20
1791.254255342292
 30
0.0
  0
VERTEX
  5
732
  8
LPU
 10
124.5838134628925
 20
1789.314466757077
 30
0.0
  0
VERTEX
  5
733
  8
LPU
 10
124.1303085899794
 20
1787.371790388688
 30
0.0
  0
VERTEX
  5
734
  8
LPU
 10
123.6890187841655
 20
1785.426302930662
 30
0.0
  0
VERTEX
  5
735
  8
LPU
 10
123.2599614668161
 20
1783.478081187512
 30
0.0
  0
VERTEX
  5
736
  8
LPU
 10
122.8431535763802
 20
1781.527202071697
 30
0.0
  0
VERTEX
  5
737
  8
LPU
 10
122.4386115677194
 20
1779.573742600584
 30
0.0
  0
VERTEX
  5
738
  8
LPU
 10
122.0463514114595
 20
1777.617779893407
 30
0.0
  0
VERTEX
  5
739
  8
LPU
 10
121.666388593359
 20
1775.659391168227
 30
0.0
  0
VERTEX
  5
73A
  8
LPU
 10
121.2987381137004
 20
1773.698653738875
 30
0.0
  0
VERTEX
  5
73B
  8
LPU
 10
120.943414486695
 20
1771.73564501191
 30
0.0
  0
VERTEX
  5
73C
  8
LPU
 10
120.6004317399111
 20
1769.770442483553
 30
0.0
  0
VERTEX
  5
73D
  8
LPU
 10
120.2698034137197
 20
1767.803123736635
 30
0.0
  0
VERTEX
  5
73E
  8
LPU
 10
119.9515425607615
 20
1765.833766437533
 30
0.0
  0
VERTEX
  5
73F
  8
LPU
 10
119.6456617454301
 20
1763.8624483331
 30
0.0
  0
VERTEX
  5
740
  8
LPU
 10
119.3521730433763
 20
1761.8892472476
 30
0.0
  0
VERTEX
  5
741
  8
LPU
 10
119.0710880410311
 20
1759.914241079632
 30
0.0
  0
VERTEX
  5
742
  8
LPU
 10
118.8024178351498
 20
1757.937507799059
 30
0.0
  0
VERTEX
  5
743
  8
LPU
 10
118.5461730323714
 20
1755.959125443926
 30
0.0
  0
VERTEX
  5
744
  8
LPU
 10
118.3023637488022
 20
1753.979172117381
 30
0.0
  0
VERTEX
  5
745
  8
LPU
 10
118.0709996096152
 20
1751.99772598459
 30
0.0
  0
VERTEX
  5
746
  8
LPU
 10
117.852089748671
 20
1750.014865269655
 30
0.0
  0
VERTEX
  5
747
  8
LPU
 10
117.6456428081551
 20
1748.03066825252
 30
0.0
  0
VERTEX
  5
748
  8
LPU
 10
117.4516669382401
 20
1746.045213265888
 30
0.0
  0
VERTEX
  5
749
  8
LPU
 10
117.2701697967609
 20
1744.058578692121
 30
0.0
  0
VERTEX
  5
74A
  8
LPU
 10
117.1011585489136
 20
1742.07084296015
 30
0.0
  0
VERTEX
  5
74B
  8
LPU
 10
116.9446398669729
 20
1740.082084542378
 30
0.0
  0
VERTEX
  5
74C
  8
LPU
 10
116.8006199300289
 20
1738.092381951584
 30
0.0
  0
VERTEX
  5
74D
  8
LPU
 10
116.6691044237418
 20
1736.101813737817
 30
0.0
  0
VERTEX
  5
74E
  8
LPU
 10
116.5500985401181
 20
1734.110458485303
 30
0.0
  0
VERTEX
  5
74F
  8
LPU
 10
116.4436069773074
 20
1732.118394809336
 30
0.0
  0
VERTEX
  5
750
  8
LPU
 10
116.3496339394133
 20
1730.125701353182
 30
0.0
  0
VERTEX
  5
751
  8
LPU
 10
116.2681831363307
 20
1728.132456784964
 30
0.0
  0
VERTEX
  5
752
  8
LPU
 10
116.1992577835981
 20
1726.138739794565
 30
0.0
  0
VERTEX
  5
753
  8
LPU
 10
116.14286060227
 20
1724.144629090519
 30
0.0
  0
VERTEX
  5
754
  8
LPU
 10
116.0989938188109
 20
1722.150203396902
 30
0.0
  0
VERTEX
  5
755
  8
LPU
 10
116.0676591650063
 20
1720.155541450224
 30
0.0
  0
VERTEX
  5
756
  8
LPU
 10
116.0488578778945
 20
1718.160721996325
 30
0.0
  0
VERTEX
  5
757
  8
LPU
 10
116.0425906997179
 20
1716.16582378726
 30
0.0
  0
VERTEX
  5
758
  8
LPU
 10
116.0488578778945
 20
1714.170925578195
 30
0.0
  0
VERTEX
  5
759
  8
LPU
 10
116.0676591650063
 20
1712.176106124295
 30
0.0
  0
VERTEX
  5
75A
  8
LPU
 10
116.0989938188113
 20
1710.181444177618
 30
0.0
  0
VERTEX
  5
75B
  8
LPU
 10
116.1428606022705
 20
1708.187018484
 30
0.0
  0
VERTEX
  5
75C
  8
LPU
 10
116.1992577835981
 20
1706.192907779954
 30
0.0
  0
VERTEX
  5
75D
  8
LPU
 10
116.2681831363311
 20
1704.199190789556
 30
0.0
  0
VERTEX
  5
75E
  8
LPU
 10
116.3496339394133
 20
1702.205946221338
 30
0.0
  0
VERTEX
  5
75F
  8
LPU
 10
116.4436069773074
 20
1700.213252765183
 30
0.0
  0
VERTEX
  5
760
  8
LPU
 10
116.5500985401186
 20
1698.221189089217
 30
0.0
  0
VERTEX
  5
761
  8
LPU
 10
116.6233329300403
 20
1696.99573970306
 30
0.0
  0
SEQEND
  5
E66
  8
LPU
  0
POLYLINE
  5
ED
  8
LPU
 66
     1
 10
0.0
 20
0.0
 30
0.0
  0
VERTEX
  5
762
  8
LPU
 10
118.3586274296254
 20
1677.895563151018
 30
0.0
  0
VERTEX
  5
763
  8
LPU
 10
118.5461730323714
 20
1676.372522130594
 30
0.0
  0
VERTEX
  5
764
  8
LPU
 10
118.8024178351498
 20
1674.39413977546
 30
0.0
  0
VERTEX
  5
765
  8
LPU
 10
119.0710880410311
 20
1672.417406494888
 30
0.0
  0
VERTEX
  5
766
  8
LPU
 10
119.3521730433763
 20
1670.44240032692
 30
0.0
  0
VERTEX
  5
767
  8
LPU
 10
119.6456617454301
 20
1668.46919924142
 30
0.0
  0
VERTEX
  5
768
  8
LPU
 10
119.9515425607619
 20
1666.497881136987
 30
0.0
  0
VERTEX
  5
769
  8
LPU
 10
120.2698034137197
 20
1664.528523837885
 30
0.0
  0
VERTEX
  5
76A
  8
LPU
 10
120.6004317399111
 20
1662.561205090967
 30
0.0
  0
VERTEX
  5
76B
  8
LPU
 10
120.9434144866955
 20
1660.59600256261
 30
0.0
  0
VERTEX
  5
76C
  8
LPU
 10
121.2440729403147
 20
1658.934995178259
 30
0.0
  0
SEQEND
  5
E67
  8
LPU
  0
POLYLINE
  5
EE
  8
LPU
 66
     1
 10
0.0
 20
0.0
 30
0.0
  0
VERTEX
  5
76D
  8
LPU
 10
125.2700758753695
 20
1640.183473360305
 30
0.0
  0
VERTEX
  5
76E
  8
LPU
 10
125.5273963141094
 20
1639.140568009718
 30
0.0
  0
VERTEX
  5
76F
  8
LPU
 10
126.0174370413774
 20
1637.206784612419
 30
0.0
  0
VERTEX
  5
770
  8
LPU
 10
126.519618335145
 20
1635.276118382787
 30
0.0
  0
VERTEX
  5
771
  8
LPU
 10
127.0339203701537
 20
1633.348645540218
 30
0.0
  0
VERTEX
  5
772
  8
LPU
 10
127.5603228426398
 20
1631.424442178041
 30
0.0
  0
VERTEX
  5
773
  8
LPU
 10
128.0988049711359
 20
1629.50358426051
 30
0.0
  0
VERTEX
  5
774
  8
LPU
 10
128.6493454972888
 20
1627.586147619805
 30
0.0
  0
VERTEX
  5
775
  8
LPU
 10
129.2119226867012
 20
1625.672207953043
 30
0.0
  0
VERTEX
  5
776
  8
LPU
 10
129.7865143297895
 20
1623.761840819284
 30
0.0
  0
VERTEX
  5
777
  8
LPU
 10
130.373097742659
 20
1621.855121636552
 30
0.0
  0
VERTEX
  5
778
  8
LPU
 10
130.971649768001
 20
1619.952125678855
 30
0.0
  0
VERTEX
  5
779
  8
LPU
 10
131.582146776007
 20
1618.052928073215
 30
0.0
  0
VERTEX
  5
77A
  8
LPU
 10
132.2045646652996
 20
1616.157603796701
 30
0.0
  0
VERTEX
  5
77B
  8
LPU
 10
132.8388788638867
 20
1614.266227673472
 30
0.0
  0
VERTEX
  5
77C
  8
LPU
 10
133.4850643301302
 20
1612.378874371816
 30
0.0
  0
VERTEX
  5
77D
  8
LPU
 10
134.1430955537335
 20
1610.495618401212
 30
0.0
  0
VERTEX
  5
77E
  8
LPU
 10
134.8129465567513
 20
1608.61653410938
 30
0.0
  0
VERTEX
  5
77F
  8
LPU
 10
135.4945908946133
 20
1606.741695679352
 30
0.0
  0
VERTEX
  5
780
  8
LPU
 10
136.1880016571672
 20
1604.871177126536
 30
0.0
  0
VERTEX
  5
781
  8
LPU
 10
136.8931514697438
 20
1603.005052295803
 30
0.0
  0
VERTEX
  5
782
  8
LPU
 10
137.6100124942363
 20
1601.143394858567
 30
0.0
  0
VERTEX
  5
783
  8
LPU
 10
138.3385564301984
 20
1599.286278309875
 30
0.0
  0
VERTEX
  5
784
  8
LPU
 10
139.0787545159633
 20
1597.433775965509
 30
0.0
  0
VERTEX
  5
785
  8
LPU
 10
139.8305775297777
 20
1595.585960959089
 30
0.0
  0
VERTEX
  5
786
  8
LPU
 10
140.5939957909568
 20
1593.742906239187
 30
0.0
  0
VERTEX
  5
787
  8
LPU
 10
141.3689791610541
 20
1591.904684566449
 30
0.0
  0
VERTEX
  5
788
  8
LPU
 10
142.1554970450538
 20
1590.071368510718
 30
0.0
  0
VERTEX
  5
789
  8
LPU
 10
142.9535183925768
 20
1588.243030448173
 30
0.0
  0
VERTEX
  5
78A
  8
LPU
 10
143.7630116991058
 20
1586.41974255847
 30
0.0
  0
VERTEX
  5
78B
  8
LPU
 10
144.5839450072317
 20
1584.601576821893
 30
0.0
  0
VERTEX
  5
78C
  8
LPU
 10
145.4162859079133
 20
1582.788605016512
 30
0.0
  0
VERTEX
  5
78D
  8
LPU
 10
146.260001541757
 20
1580.98089871535
 30
0.0
  0
VERTEX
  5
78E
  8
LPU
 10
147.1150586003137
 20
1579.178529283556
 30
0.0
  0
VERTEX
  5
78F
  8
LPU
 10
147.9814233273951
 20
1577.38156787559
 30
0.0
  0
VERTEX
  5
790
  8
LPU
 10
148.8590615204057
 20
1575.59008543241
 30
0.0
  0
VERTEX
  5
791
  8
LPU
 10
149.7479385316919
 20
1573.804152678675
 30
0.0
  0
VERTEX
  5
792
  8
LPU
 10
150.6480192699114
 20
1572.023840119955
 30
0.0
  0
VERTEX
  5
793
  8
LPU
 10
151.5592682014176
 20
1570.249218039938
 30
0.0
  0
VERTEX
  5
794
  8
LPU
 10
152.4816493516632
 20
1568.480356497668
 30
0.0
  0
VERTEX
  5
795
  8
LPU
 10
153.4151263066201
 20
1566.717325324768
 30
0.0
  0
VERTEX
  5
796
  8
LPU
 10
154.3596622142163
 20
1564.96019412269
 30
0.0
  0
VERTEX
  5
797
  8
LPU
 10
155.3152197857912
 20
1563.209032259966
 30
0.0
  0
VERTEX
  5
798
  8
LPU
 10
156.2817612975682
 20
1561.463908869468
 30
0.0
  0
VERTEX
  5
799
  8
LPU
 10
157.2592485921436
 20
1559.724892845678
 30
0.0
  0
VERTEX
  5
79A
  8
LPU
 10
158.2476430799925
 20
1557.992052841973
 30
0.0
  0
VERTEX
  5
79B
  8
LPU
 10
159.2469057409926
 20
1556.265457267907
 30
0.0
  0
VERTEX
  5
79C
  8
LPU
 10
160.2569971259659
 20
1554.545174286518
 30
0.0
  0
VERTEX
  5
79D
  8
LPU
 10
161.2778773582336
 20
1552.831271811633
 30
0.0
  0
VERTEX
  5
79E
  8
LPU
 10
161.8333697765934
 20
1551.911873338934
 30
0.0
  0
SEQEND
  5
E68
  8
LPU
  0
POLYLINE
  5
EF
  8
LPU
 66
     1
 10
0.0
 20
0.0
 30
0.0
  0
VERTEX
  5
79F
  8
LPU
 10
172.245884035181
 20
1535.805731127437
 30
0.0
  0
VERTEX
  5
7A0
  8
LPU
 10
173.2077959888866
 20
1534.418623910978
 30
0.0
  0
VERTEX
  5
7A1
  8
LPU
 10
174.354878597012
 20
1532.786490450691
 30
0.0
  0
VERTEX
  5
7A2
  8
LPU
 10
175.5121934922104
 20
1531.161596492488
 30
0.0
  0
VERTEX
  5
7A3
  8
LPU
 10
176.6796949856721
 20
1529.544006184401
 30
0.0
  0
VERTEX
  5
7A4
  8
LPU
 10
177.8573369864366
 20
1527.933783386125
 30
0.0
  0
VERTEX
  5
7A5
  8
LPU
 10
179.0450730032144
 20
1526.330991666499
 30
0.0
  0
VERTEX
  5
7A6
  8
LPU
 10
180.2428561462216
 20
1524.735694300996
 30
0.0
  0
VERTEX
  5
7A7
  8
LPU
 10
181.4506391290302
 20
1523.147954269224
 30
0.0
  0
VERTEX
  5
7A8
  8
LPU
 10
182.6683742704363
 20
1521.567834252441
 30
0.0
  0
VERTEX
  5
7A9
  8
LPU
 10
183.6127121365139
 20
1520.358266851398
 30
0.0
  0
SEQEND
  5
E69
  8
LPU
  0
POLYLINE
  5
F0
  8
LPU
 66
     1
 10
0.0
 20
0.0
 30
0.0
  0
VERTEX
  5
7AA
  8
LPU
 10
195.8915379903101
 20
1505.625363981577
 30
0.0
  0
VERTEX
  5
7AB
  8
LPU
 10
196.7062770275397
 20
1504.707055876886
 30
0.0
  0
VERTEX
  5
7AC
  8
LPU
 10
198.0395778551679
 20
1503.223153236853
 30
0.0
  0
VERTEX
  5
7AD
  8
LPU
 10
199.3821759384978
 20
1501.747657208836
 30
0.0
  0
VERTEX
  5
7AE
  8
LPU
 10
200.734018274055
 20
1500.280626042893
 30
0.0
  0
VERTEX
  5
7AF
  8
LPU
 10
202.0950514934198
 20
1498.822117654903
 30
0.0
  0
VERTEX
  5
7B0
  8
LPU
 10
203.4652218653305
 20
1497.372189624278
 30
0.0
  0
VERTEX
  5
7B1
  8
LPU
 10
204.8444752978071
 20
1495.930899191696
 30
0.0
  0
VERTEX
  5
7B2
  8
LPU
 10
206.2327573402863
 20
1494.498303256834
 30
0.0
  0
VERTEX
  5
7B3
  8
LPU
 10
207.6300131857697
 20
1493.074458376127
 30
0.0
  0
VERTEX
  5
7B4
  8
LPU
 10
209.0361876729889
 20
1491.659420760533
 30
0.0
  0
VERTEX
  5
7B5
  8
LPU
 10
210.4512252885829
 20
1490.253246273313
 30
0.0
  0
VERTEX
  5
7B6
  8
LPU
 10
211.8750701692902
 20
1488.85599042783
 30
0.0
  0
VERTEX
  5
7B7
  8
LPU
 10
213.3076661041518
 20
1487.467708385351
 30
0.0
  0
VERTEX
  5
7B8
  8
LPU
 10
214.7489565367346
 20
1486.088454952874
 30
0.0
  0
VERTEX
  5
7B9
  8
LPU
 10
216.1988845673591
 20
1484.718284580963
 30
0.0
  0
VERTEX
  5
7BA
  8
LPU
 10
217.6573929553497
 20
1483.357251361599
 30
0.0
  0
VERTEX
  5
7BB
  8
LPU
 10
219.1244241212926
 20
1482.005409026041
 30
0.0
  0
VERTEX
  5
7BC
  8
LPU
 10
220.5999201493091
 20
1480.662810942712
 30
0.0
  0
VERTEX
  5
7BD
  8
LPU
 10
222.0838227893428
 20
1479.329510115084
 30
0.0
  0
VERTEX
  5
7BE
  8
LPU
 10
223.5760734594583
 20
1478.005559179591
 30
0.0
  0
VERTEX
  5
7BF
  8
LPU
 10
225.076613248154
 20
1476.691010403549
 30
0.0
  0
VERTEX
  5
7C0
  8
LPU
 10
226.5853829166886
 20
1475.385915683093
 30
0.0
  0
VERTEX
  5
7C1
  8
LPU
 10
228.102322901419
 20
1474.090326541127
 30
0.0
  0
VERTEX
  5
7C2
  8
LPU
 10
229.627373316152
 20
1472.804294125293
 30
0.0
  0
VERTEX
  5
7C3
  8
LPU
 10
231.1604739545087
 20
1471.527869205949
 30
0.0
  0
VERTEX
  5
7C4
  8
LPU
 10
232.7015642923006
 20
1470.261102174164
 30
0.0
  0
VERTEX
  5
7C5
  8
LPU
 10
234.2505834899202
 20
1469.004043039732
 30
0.0
  0
VERTEX
  5
7C6
  8
LPU
 10
235.8074703947418
 20
1467.756741429195
 30
0.0
  0
VERTEX
  5
7C7
  8
LPU
 10
237.3721635435363
 20
1466.519246583885
 30
0.0
  0
VERTEX
  5
7C8
  8
LPU
 10
238.9446011648974
 20
1465.29160735798
 30
0.0
  0
VERTEX
  5
7C9
  8
LPU
 10
240.52472118168
 20
1464.073872216574
 30
0.0
  0
VERTEX
  5
7CA
  8
LPU
 10
242.1124612134522
 20
1462.866089233766
 30
0.0
  0
VERTEX
  5
7CB
  8
LPU
 10
243.7077585789552
 20
1461.668306090759
 30
0.0
  0
VERTEX
  5
7CC
  8
LPU
 10
245.3105502985809
 20
1460.480570073981
 30
0.0
  0
VERTEX
  5
7CD
  8
LPU
 10
246.9207730968569
 20
1459.302928073216
 30
0.0
  0
VERTEX
  5
7CE
  8
LPU
 10
248.5383634049444
 20
1458.135426579755
 30
0.0
  0
VERTEX
  5
7CF
  8
LPU
 10
250.1632573631473
 20
1456.978111684556
 30
0.0
  0
VERTEX
  5
7D0
  8
LPU
 10
251.7953908234349
 20
1455.831029076431
 30
0.0
  0
VERTEX
  5
7D1
  8
LPU
 10
253.4346993519721
 20
1454.694224040236
 30
0.0
  0
VERTEX
  5
7D2
  8
LPU
 10
255.0811182316656
 20
1453.567741455089
 30
0.0
  0
VERTEX
  5
7D3
  8
LPU
 10
256.7345824647177
 20
1452.451625792592
 30
0.0
  0
VERTEX
  5
7D4
  8
LPU
 10
258.3950267751907
 20
1451.34592111508
 30
0.0
  0
VERTEX
  5
7D5
  8
LPU
 10
260.0623856115867
 20
1450.250671073882
 30
0.0
  0
VERTEX
  5
7D6
  8
LPU
 10
261.7365931494342
 20
1449.165918907593
 30
0.0
  0
VERTEX
  5
7D7
  8
LPU
 10
263.4175832938859
 20
1448.091707440372
 30
0.0
  0
VERTEX
  5
7D8
  8
LPU
 10
265.1052896823289
 20
1447.028079080248
 30
0.0
  0
VERTEX
  5
7D9
  8
LPU
 10
266.7996456870055
 20
1445.975075817448
 30
0.0
  0
VERTEX
  5
7DA
  8
LPU
 10
268.5005844176417
 20
1444.932739222736
 30
0.0
  0
VERTEX
  5
7DB
  8
LPU
 10
269.2886402513827
 20
1444.456602864142
 30
0.0
  0
SEQEND
  5
E6A
  8
LPU
  0
POLYLINE
  5
F1
  8
LPU
 66
     1
 10
0.0
 20
0.0
 30
0.0
  0
VERTEX
  5
7DC
  8
LPU
 10
285.9931896826024
 20
1435.033930043037
 30
0.0
  0
VERTEX
  5
7DD
  8
LPU
 10
287.6259849523949
 20
1434.182501288962
 30
0.0
  0
VERTEX
  5
7DE
  8
LPU
 10
289.4006070324112
 20
1433.271252357456
 30
0.0
  0
VERTEX
  5
7DF
  8
LPU
 10
291.1809195911319
 20
1432.371171619236
 30
0.0
  0
VERTEX
  5
7E0
  8
LPU
 10
292.9668523448659
 20
1431.48229460795
 30
0.0
  0
VERTEX
  5
7E1
  8
LPU
 10
294.7583347880459
 20
1430.604656414939
 30
0.0
  0
VERTEX
  5
7E2
  8
LPU
 10
296.5552961960129
 20
1429.738291687858
 30
0.0
  0
VERTEX
  5
7E3
  8
LPU
 10
298.3576656278065
 20
1428.883234629301
 30
0.0
  0
VERTEX
  5
7E4
  8
LPU
 10
300.1653719289689
 20
1428.039518995458
 30
0.0
  0
VERTEX
  5
7E5
  8
LPU
 10
301.9783437343494
 20
1427.207178094776
 30
0.0
  0
VERTEX
  5
7E6
  8
LPU
 10
303.2370738596674
 20
1426.638839650691
 30
0.0
  0
SEQEND
  5
E6B
  8
LPU
  0
POLYLINE
  5
F2
  8
LPU
 66
     1
 10
0.0
 20
0.0
 30
0.0
  0
VERTEX
  5
7E7
  8
LPU
 10
320.9560114638657
 20
1419.299415384189
 30
0.0
  0
VERTEX
  5
7E8
  8
LPU
 10
322.2479440389925
 20
1418.811234744711
 30
0.0
  0
VERTEX
  5
7E9
  8
LPU
 10
324.1184625918081
 20
1418.117823982157
 30
0.0
  0
VERTEX
  5
7EA
  8
LPU
 10
325.9933010218374
 20
1417.436179644296
 30
0.0
  0
VERTEX
  5
7EB
  8
LPU
 10
327.8723853136689
 20
1416.766328641278
 30
0.0
  0
VERTEX
  5
7EC
  8
LPU
 10
329.7556412842732
 20
1416.108297417674
 30
0.0
  0
VERTEX
  5
7ED
  8
LPU
 10
331.6429945859281
 20
1415.462111951431
 30
0.0
  0
VERTEX
  5
7EE
  8
LPU
 10
333.5343707091579
 20
1414.827797752844
 30
0.0
  0
VERTEX
  5
7EF
  8
LPU
 10
335.4296949856716
 20
1414.205379863551
 30
0.0
  0
VERTEX
  5
7F0
  8
LPU
 10
337.3288925913116
 20
1413.594882855545
 30
0.0
  0
VERTEX
  5
7F1
  8
LPU
 10
339.2318885490085
 20
1412.996330830203
 30
0.0
  0
VERTEX
  5
7F2
  8
LPU
 10
341.1386077317411
 20
1412.409747417334
 30
0.0
  0
VERTEX
  5
7F3
  8
LPU
 10
343.0489748655
 20
1411.835155774246
 30
0.0
  0
VERTEX
  5
7F4
  8
LPU
 10
344.9629145322619
 20
1411.272578584833
 30
0.0
  0
VERTEX
  5
7F5
  8
LPU
 10
346.8803511729666
 20
1410.72203805868
 30
0.0
  0
VERTEX
  5
7F6
  8
LPU
 10
348.8012090904981
 20
1410.183555930184
 30
0.0
  0
VERTEX
  5
7F7
  8
LPU
 10
350.7254124526748
 20
1409.657153457698
 30
0.0
  0
VERTEX
  5
7F8
  8
LPU
 10
352.6528852952433
 20
1409.142851422689
 30
0.0
  0
VERTEX
  5
7F9
  8
LPU
 10
354.5835515248764
 20
1408.640670128922
 30
0.0
  0
VERTEX
  5
7FA
  8
LPU
 10
356.5173349221759
 20
1408.150629401654
 30
0.0
  0
VERTEX
  5
7FB
  8
LPU
 10
358.454159144685
 20
1407.672748586854
 30
0.0
  0
VERTEX
  5
7FC
  8
LPU
 10
360.3939477299
 20
1407.207046550437
 30
0.0
  0
VERTEX
  5
7FD
  8
LPU
 10
362.3366240982891
 20
1406.753541677524
 30
0.0
  0
VERTEX
  5
7FE
  8
LPU
 10
364.2821115563152
 20
1406.31225187171
 30
0.0
  0
VERTEX
  5
7FF
  8
LPU
 10
366.2303332994652
 20
1405.883194554361
 30
0.0
  0
VERTEX
  5
800
  8
LPU
 10
368.1812124152802
 20
1405.466386663925
 30
0.0
  0
VERTEX
  5
801
  8
LPU
 10
370.1346718863933
 20
1405.061844655264
 30
0.0
  0
VERTEX
  5
802
  8
LPU
 10
372.0906345935691
 20
1404.669584499004
 30
0.0
  0
VERTEX
  5
803
  8
LPU
 10
374.0490233187497
 20
1404.289621680904
 30
0.0
  0
VERTEX
  5
804
  8
LPU
 10
376.0097607481011
 20
1403.921971201246
 30
0.0
  0
VERTEX
  5
805
  8
LPU
 10
377.9727694750673
 20
1403.56664757424
 30
0.0
  0
VERTEX
  5
806
  8
LPU
 10
379.9379720034244
 20
1403.223664827456
 30
0.0
  0
VERTEX
  5
807
  8
LPU
 10
381.9052907503419
 20
1402.893036501265
 30
0.0
  0
VERTEX
  5
808
  8
LPU
 10
383.8746480494442
 20
1402.574775648307
 30
0.0
  0
VERTEX
  5
809
  8
LPU
 10
385.8459661538768
 20
1402.268894832975
 30
0.0
  0
VERTEX
  5
80A
  8
LPU
 10
387.8191672393773
 20
1401.975406130921
 30
0.0
  0
VERTEX
  5
80B
  8
LPU
 10
389.7941734073447
 20
1401.694321128576
 30
0.0
  0
VERTEX
  5
80C
  8
LPU
 10
391.7709066879174
 20
1401.425650922695
 30
0.0
  0
VERTEX
  5
80D
  8
LPU
 10
393.7492890430508
 20
1401.169406119916
 30
0.0
  0
VERTEX
  5
80E
  8
LPU
 10
395.7292423695962
 20
1400.925596836347
 30
0.0
  0
VERTEX
  5
80F
  8
LPU
 10
397.7106885023873
 20
1400.69423269716
 30
0.0
  0
VERTEX
  5
810
  8
LPU
 10
399.6935492173225
 20
1400.475322836216
 30
0.0
  0
VERTEX
  5
811
  8
LPU
 10
401.6777462344567
 20
1400.2688758957
 30
0.0
  0
VERTEX
  5
812
  8
LPU
 10
403.6632012210894
 20
1400.074900025785
 30
0.0
  0
VERTEX
  5
813
  8
LPU
 10
405.6498357948567
 20
1399.893402884306
 30
0.0
  0
VERTEX
  5
814
  8
LPU
 10
407.6375715268273
 20
1399.724391636458
 30
0.0
  0
VERTEX
  5
815
  8
LPU
 10
409.6263299445986
 20
1399.567872954518
 30
0.0
  0
VERTEX
  5
816
  8
LPU
 10
411.6160325353935
 20
1399.423853017574
 30
0.0
  0
VERTEX
  5
817
  8
LPU
 10
413.6066007491604
 20
1399.292337511287
 30
0.0
  0
VERTEX
  5
818
  8
LPU
 10
414.3725066155071
 20
1399.246566017586
 30
0.0
  0
SEQEND
  5
E6C
  8
LPU
  0
POLYLINE
  5
F3
  8
LPU
 66
     1
 10
0.0
 20
0.0
 30
0.0
  0
VERTEX
  5
819
  8
LPU
 10
433.542590699712
 20
1398.665823787263
 30
0.0
  0
VERTEX
  5
81A
  8
LPU
 10
435.5374889087821
 20
1398.672090965439
 30
0.0
  0
VERTEX
  5
81B
  8
LPU
 10
437.5323083626818
 20
1398.690892252551
 30
0.0
  0
VERTEX
  5
81C
  8
LPU
 10
439.5269703093591
 20
1398.722226906356
 30
0.0
  0
VERTEX
  5
81D
  8
LPU
 10
441.5213960029769
 20
1398.766093689815
 30
0.0
  0
VERTEX
  5
81E
  8
LPU
 10
443.5155067070227
 20
1398.822490871143
 30
0.0
  0
VERTEX
  5
81F
  8
LPU
 10
445.5092236974215
 20
1398.891416223876
 30
0.0
  0
VERTEX
  5
820
  8
LPU
 10
447.502468265639
 20
1398.972867026958
 30
0.0
  0
VERTEX
  5
821
  8
LPU
 10
449.4951617217939
 20
1399.066840064852
 30
0.0
  0
VERTEX
  5
822
  8
LPU
 10
451.4872253977596
 20
1399.173331627663
 30
0.0
  0
VERTEX
  5
823
  8
LPU
 10
452.712674783917
 20
1399.246566017585
 30
0.0
  0
SEQEND
  5
E6D
  8
LPU
  0
POLYLINE
  5
F4
  8
LPU
 66
     1
 10
0.0
 20
0.0
 30
0.0
  0
VERTEX
  5
824
  8
LPU
 10
471.8128513359584
 20
1400.98186051717
 30
0.0
  0
VERTEX
  5
825
  8
LPU
 10
473.3358923563833
 20
1401.169406119916
 30
0.0
  0
VERTEX
  5
826
  8
LPU
 10
475.3142747115166
 20
1401.425650922695
 30
0.0
  0
VERTEX
  5
827
  8
LPU
 10
477.2910079920894
 20
1401.694321128576
 30
0.0
  0
VERTEX
  5
828
  8
LPU
 10
479.2660141600568
 20
1401.975406130921
 30
0.0
  0
VERTEX
  5
829
  8
LPU
 10
481.239215245557
 20
1402.268894832975
 30
0.0
  0
VERTEX
  5
82A
  8
LPU
 10
483.2105333499899
 20
1402.574775648307
 30
0.0
  0
VERTEX
  5
82B
  8
LPU
 10
485.1798906490922
 20
1402.893036501265
 30
0.0
  0
VERTEX
  5
82C
  8
LPU
 10
487.1472093960097
 20
1403.223664827456
 30
0.0
  0
VERTEX
  5
82D
  8
LPU
 10
489.1124119243668
 20
1403.56664757424
 30
0.0
  0
VERTEX
  5
82E
  8
LPU
 10
491.0754206513327
 20
1403.921971201246
 30
0.0
  0
VERTEX
  5
82F
  8
LPU
 10
493.0361580806841
 20
1404.289621680904
 30
0.0
  0
VERTEX
  5
830
  8
LPU
 10
494.9945468058647
 20
1404.669584499004
 30
0.0
  0
VERTEX
  5
831
  8
LPU
 10
496.9505095130407
 20
1405.061844655264
 30
0.0
  0
VERTEX
  5
832
  8
LPU
 10
498.9039689841538
 20
1405.466386663926
 30
0.0
  0
VERTEX
  5
833
  8
LPU
 10
500.8548480999689
 20
1405.883194554361
 30
0.0
  0
VERTEX
  5
834
  8
LPU
 10
502.8030698431187
 20
1406.31225187171
 30
0.0
  0
VERTEX
  5
835
  8
LPU
 10
504.748557301145
 20
1406.753541677524
 30
0.0
  0
VERTEX
  5
836
  8
LPU
 10
506.6912336695339
 20
1407.207046550438
 30
0.0
  0
VERTEX
  5
837
  8
LPU
 10
508.631022254749
 20
1407.672748586854
 30
0.0
  0
VERTEX
  5
838
  8
LPU
 10
510.5678464772582
 20
1408.150629401654
 30
0.0
  0
VERTEX
  5
839
  8
LPU
 10
512.5016298745577
 20
1408.640670128922
 30
0.0
  0
VERTEX
  5
83A
  8
LPU
 10
514.4322961041901
 20
1409.14285142269
 30
0.0
  0
VERTEX
  5
83B
  8
LPU
 10
516.3597689467585
 20
1409.657153457698
 30
0.0
  0
VERTEX
  5
83C
  8
LPU
 10
518.2839723089355
 20
1410.183555930185
 30
0.0
  0
VERTEX
  5
83D
  8
LPU
 10
520.204830226467
 20
1410.72203805868
 30
0.0
  0
VERTEX
  5
83E
  8
LPU
 10
522.1222668671714
 20
1411.272578584833
 30
0.0
  0
VERTEX
  5
83F
  8
LPU
 10
524.0362065339336
 20
1411.835155774246
 30
0.0
  0
VERTEX
  5
840
  8
LPU
 10
525.9465736676925
 20
1412.409747417334
 30
0.0
  0
VERTEX
  5
841
  8
LPU
 10
527.8532928504246
 20
1412.996330830204
 30
0.0
  0
VERTEX
  5
842
  8
LPU
 10
529.7562888081218
 20
1413.594882855546
 30
0.0
  0
VERTEX
  5
843
  8
LPU
 10
531.655486413762
 20
1414.205379863552
 30
0.0
  0
VERTEX
  5
844
  8
LPU
 10
533.5508106902753
 20
1414.827797752844
 30
0.0
  0
VERTEX
  5
845
  8
LPU
 10
535.442186813505
 20
1415.462111951432
 30
0.0
  0
VERTEX
  5
846
  8
LPU
 10
537.3295401151604
 20
1416.108297417675
 30
0.0
  0
VERTEX
  5
847
  8
LPU
 10
539.2127960857642
 20
1416.766328641278
 30
0.0
  0
VERTEX
  5
848
  8
LPU
 10
541.091880377596
 20
1417.436179644296
 30
0.0
  0
VERTEX
  5
849
  8
LPU
 10
542.966718807625
 20
1418.117823982158
 30
0.0
  0
VERTEX
  5
84A
  8
LPU
 10
544.8372373604407
 20
1418.811234744712
 30
0.0
  0
VERTEX
  5
84B
  8
LPU
 10
546.703362191173
 20
1419.516384557288
 30
0.0
  0
VERTEX
  5
84C
  8
LPU
 10
548.5650196284091
 20
1420.233245581781
 30
0.0
  0
VERTEX
  5
84D
  8
LPU
 10
550.422136177101
 20
1420.961789517743
 30
0.0
  0
VERTEX
  5
84E
  8
LPU
 10
552.2746385214675
 20
1421.701987603508
 30
0.0
  0
VERTEX
  5
84F
  8
LPU
 10
554.1224535278877
 20
1422.453810617322
 30
0.0
  0
VERTEX
  5
850
  8
LPU
 10
555.9655082477893
 20
1423.217228878501
 30
0.0
  0
VERTEX
  5
851
  8
LPU
 10
557.8037299205275
 20
1423.992212248599
 30
0.0
  0
VERTEX
  5
852
  8
LPU
 10
559.6370459762586
 20
1424.778730132599
 30
0.0
  0
VERTEX
  5
853
  8
LPU
 10
561.4653840388037
 20
1425.576751480121
 30
0.0
  0
VERTEX
  5
854
  8
LPU
 10
563.2886719285066
 20
1426.38624478665
 30
0.0
  0
VERTEX
  5
855
  8
LPU
 10
563.8481075397563
 20
1426.638839650687
 30
0.0
  0
SEQEND
  5
E6E
  8
LPU
  0
POLYLINE
  5
F5
  8
LPU
 66
     1
 10
0.0
 20
0.0
 30
0.0
  0
VERTEX
  5
856
  8
LPU
 10
581.0919917168214
 20
1435.033930043033
 30
0.0
  0
VERTEX
  5
857
  8
LPU
 10
581.2280579893086
 20
1435.104882439208
 30
0.0
  0
VERTEX
  5
858
  8
LPU
 10
582.9910891622085
 20
1436.038359394165
 30
0.0
  0
VERTEX
  5
859
  8
LPU
 10
584.7482203642862
 20
1436.982895301761
 30
0.0
  0
VERTEX
  5
85A
  8
LPU
 10
586.4993822270101
 20
1437.938452873336
 30
0.0
  0
VERTEX
  5
85B
  8
LPU
 10
588.2445056175084
 20
1438.904994385113
 30
0.0
  0
VERTEX
  5
85C
  8
LPU
 10
589.983521641298
 20
1439.882481679688
 30
0.0
  0
VERTEX
  5
85D
  8
LPU
 10
591.7163616450036
 20
1440.870876167537
 30
0.0
  0
VERTEX
  5
85E
  8
LPU
 10
593.4429572190695
 20
1441.870138828537
 30
0.0
  0
VERTEX
  5
85F
  8
LPU
 10
595.1632402004582
 20
1442.88023021351
 30
0.0
  0
VERTEX
  5
860
  8
LPU
 10
596.8771426753437
 20
1443.901110445778
 30
0.0
  0
VERTEX
  5
861
  8
LPU
 10
597.7965411480411
 20
1444.456602864137
 30
0.0
  0
SEQEND
  5
E6F
  8
LPU
  0
POLYLINE
  5
F6
  8
LPU
 66
     1
 10
0.0
 20
0.0
 30
0.0
  0
VERTEX
  5
862
  8
LPU
 10
613.9026833595383
 20
1454.869117122725
 30
0.0
  0
VERTEX
  5
863
  8
LPU
 10
615.2897905759978
 20
1455.831029076431
 30
0.0
  0
VERTEX
  5
864
  8
LPU
 10
616.921924036285
 20
1456.978111684556
 30
0.0
  0
VERTEX
  5
865
  8
LPU
 10
618.546817994488
 20
1458.135426579755
 30
0.0
  0
VERTEX
  5
866
  8
LPU
 10
620.1644083025753
 20
1459.302928073216
 30
0.0
  0
VERTEX
  5
867
  8
LPU
 10
621.7746311008514
 20
1460.480570073981
 30
0.0
  0
VERTEX
  5
868
  8
LPU
 10
623.3774228204772
 20
1461.668306090759
 30
0.0
  0
VERTEX
  5
869
  8
LPU
 10
624.9727201859803
 20
1462.866089233766
 30
0.0
  0
VERTEX
  5
86A
  8
LPU
 10
626.5604602177523
 20
1464.073872216575
 30
0.0
  0
VERTEX
  5
86B
  8
LPU
 10
628.140580234535
 20
1465.291607357981
 30
0.0
  0
VERTEX
  5
86C
  8
LPU
 10
629.7130178558959
 20
1466.519246583886
 30
0.0
  0
VERTEX
  5
86D
  8
LPU
 10
631.2777110046907
 20
1467.756741429195
 30
0.0
  0
VERTEX
  5
86E
  8
LPU
 10
632.8345979095122
 20
1469.004043039732
 30
0.0
  0
VERTEX
  5
86F
  8
LPU
 10
634.3836171071318
 20
1470.261102174164
 30
0.0
  0
VERTEX
  5
870
  8
LPU
 10
635.9247074449238
 20
1471.527869205949
 30
0.0
  0
VERTEX
  5
871
  8
LPU
 10
637.4578080832803
 20
1472.804294125294
 30
0.0
  0
VERTEX
  5
872
  8
LPU
 10
638.9828584980135
 20
1474.090326541128
 30
0.0
  0
VERTEX
  5
873
  8
LPU
 10
640.4997984827439
 20
1475.385915683093
 30
0.0
  0
VERTEX
  5
874
  8
LPU
 10
642.0085681512785
 20
1476.691010403549
 30
0.0
  0
VERTEX
  5
875
  8
LPU
 10
643.5091079399742
 20
1478.005559179591
 30
0.0
  0
VERTEX
  5
876
  8
LPU
 10
645.0013586100897
 20
1479.329510115084
 30
0.0
  0
VERTEX
  5
877
  8
LPU
 10
646.4852612501234
 20
1480.662810942712
 30
0.0
  0
VERTEX
  5
878
  8
LPU
 10
647.9607572781399
 20
1482.005409026042
 30
0.0
  0
VERTEX
  5
879
  8
LPU
 10
649.4277884440828
 20
1483.357251361599
 30
0.0
  0
VERTEX
  5
87A
  8
LPU
 10
650.8862968320734
 20
1484.718284580964
 30
0.0
  0
VERTEX
  5
87B
  8
LPU
 10
652.3362248626977
 20
1486.088454952875
 30
0.0
  0
VERTEX
  5
87C
  8
LPU
 10
653.7775152952802
 20
1487.467708385352
 30
0.0
  0
VERTEX
  5
87D
  8
LPU
 10
655.2101112301423
 20
1488.855990427831
 30
0.0
  0
VERTEX
  5
87E
  8
LPU
 10
656.6339561108493
 20
1490.253246273314
 30
0.0
  0
VERTEX
  5
87F
  8
LPU
 10
658.0489937264433
 20
1491.659420760533
 30
0.0
  0
VERTEX
  5
880
  8
LPU
 10
659.4551682136625
 20
1493.074458376127
 30
0.0
  0
VERTEX
  5
881
  8
LPU
 10
660.852424059146
 20
1494.498303256834
 30
0.0
  0
VERTEX
  5
882
  8
LPU
 10
662.2407061016249
 20
1495.930899191696
 30
0.0
  0
VERTEX
  5
883
  8
LPU
 10
663.6199595341018
 20
1497.372189624279
 30
0.0
  0
VERTEX
  5
884
  8
LPU
 10
664.9901299060127
 20
1498.822117654903
 30
0.0
  0
VERTEX
  5
885
  8
LPU
 10
666.3511631253773
 20
1500.280626042894
 30
0.0
  0
VERTEX
  5
886
  8
LPU
 10
667.7030054609347
 20
1501.747657208837
 30
0.0
  0
VERTEX
  5
887
  8
LPU
 10
669.0456035442642
 20
1503.223153236853
 30
0.0
  0
VERTEX
  5
888
  8
LPU
 10
670.3789043718923
 20
1504.707055876887
 30
0.0
  0
VERTEX
  5
889
  8
LPU
 10
671.7028553073853
 20
1506.199306547002
 30
0.0
  0
VERTEX
  5
88A
  8
LPU
 10
673.0174040834272
 20
1507.699846335698
 30
0.0
  0
VERTEX
  5
88B
  8
LPU
 10
674.3224988038835
 20
1509.208616004233
 30
0.0
  0
VERTEX
  5
88C
  8
LPU
 10
675.6180879458489
 20
1510.725555988963
 30
0.0
  0
VERTEX
  5
88D
  8
LPU
 10
676.9041203616828
 20
1512.250606403696
 30
0.0
  0
VERTEX
  5
88E
  8
LPU
 10
678.1805452810272
 20
1513.783707042053
 30
0.0
  0
VERTEX
  5
88F
  8
LPU
 10
679.4473123128123
 20
1515.324797379845
 30
0.0
  0
VERTEX
  5
890
  8
LPU
 10
680.7043714472441
 20
1516.873816577464
 30
0.0
  0
VERTEX
  5
891
  8
LPU
 10
681.9516730577809
 20
1518.430703482286
 30
0.0
  0
VERTEX
  5
892
  8
LPU
 10
683.1891679030907
 20
1519.995396631081
 30
0.0
  0
VERTEX
  5
893
  8
LPU
 10
683.4724692629118
 20
1520.358266851391
 30
0.0
  0
SEQEND
  5
E70
  8
LPU
  0
POLYLINE
  5
F7
  8
LPU
 66
     1
 10
0.0
 20
0.0
 30
0.0
  0
VERTEX
  5
894
  8
LPU
 10
694.8392973642453
 20
1535.80573112743
 30
0.0
  0
VERTEX
  5
895
  8
LPU
 10
695.0141904467396
 20
1536.057932439516
 30
0.0
  0
VERTEX
  5
896
  8
LPU
 10
696.1406730318872
 20
1537.70435131921
 30
0.0
  0
VERTEX
  5
897
  8
LPU
 10
697.2567886943843
 20
1539.357815552262
 30
0.0
  0
VERTEX
  5
898
  8
LPU
 10
698.3624933718957
 20
1541.018259862735
 30
0.0
  0
VERTEX
  5
899
  8
LPU
 10
699.4577434130938
 20
1542.685618699131
 30
0.0
  0
VERTEX
  5
89A
  8
LPU
 10
700.5424955793826
 20
1544.359826236978
 30
0.0
  0
VERTEX
  5
89B
  8
LPU
 10
701.6167070466036
 20
1546.04081638143
 30
0.0
  0
VERTEX
  5
89C
  8
LPU
 10
702.6803354067279
 20
1547.728522769873
 30
0.0
  0
VERTEX
  5
89D
  8
LPU
 10
703.7333386695286
 20
1549.42287877455
 30
0.0
  0
VERTEX
  5
89E
  8
LPU
 10
704.7756752642399
 20
1551.123817505186
 30
0.0
  0
VERTEX
  5
89F
  8
LPU
 10
705.2518116228337
 20
1551.911873338927
 30
0.0
  0
SEQEND
  5
E71
  8
LPU
  0
POLYLINE
  5
F8
  8
LPU
 66
     1
 10
0.0
 20
0.0
 30
0.0
  0
VERTEX
  5
8A0
  8
LPU
 10
714.6744844439388
 20
1568.616422770147
 30
0.0
  0
VERTEX
  5
8A1
  8
LPU
 10
715.525913198014
 20
1570.249218039939
 30
0.0
  0
VERTEX
  5
8A2
  8
LPU
 10
716.4371621295204
 20
1572.023840119955
 30
0.0
  0
VERTEX
  5
8A3
  8
LPU
 10
717.3372428677399
 20
1573.804152678676
 30
0.0
  0
VERTEX
  5
8A4
  8
LPU
 10
718.2261198790261
 20
1575.59008543241
 30
0.0
  0
VERTEX
  5
8A5
  8
LPU
 10
719.1037580720365
 20
1577.38156787559
 30
0.0
  0
VERTEX
  5
8A6
  8
LPU
 10
719.9701227991181
 20
1579.178529283557
 30
0.0
  0
VERTEX
  5
8A7
  8
LPU
 10
720.8251798576748
 20
1580.98089871535
 30
0.0
  0
VERTEX
  5
8A8
  8
LPU
 10
721.6688954915182
 20
1582.788605016513
 30
0.0
  0
VERTEX
  5
8A9
  8
LPU
 10
722.5012363921996
 20
1584.601576821893
 30
0.0
  0
VERTEX
  5
8AA
  8
LPU
 10
723.3221697003257
 20
1586.41974255847
 30
0.0
  0
VERTEX
  5
8AB
  8
LPU
 10
724.131663006855
 20
1588.243030448173
 30
0.0
  0
VERTEX
  5
8AC
  8
LPU
 10
724.9296843543777
 20
1590.071368510718
 30
0.0
  0
VERTEX
  5
8AD
  8
LPU
 10
725.7162022383775
 20
1591.904684566449
 30
0.0
  0
VERTEX
  5
8AE
  8
LPU
 10
726.491185608475
 20
1593.742906239187
 30
0.0
  0
VERTEX
  5
8AF
  8
LPU
 10
727.2546038696541
 20
1595.585960959089
 30
0.0
  0
VERTEX
  5
8B0
  8
LPU
 10
728.0064268834685
 20
1597.433775965509
 30
0.0
  0
VERTEX
  5
8B1
  8
LPU
 10
728.7466249692334
 20
1599.286278309876
 30
0.0
  0
VERTEX
  5
8B2
  8
LPU
 10
729.4751689051955
 20
1601.143394858567
 30
0.0
  0
VERTEX
  5
8B3
  8
LPU
 10
730.192029929688
 20
1603.005052295804
 30
0.0
  0
VERTEX
  5
8B4
  8
LPU
 10
730.8971797422646
 20
1604.871177126536
 30
0.0
  0
VERTEX
  5
8B5
  8
LPU
 10
731.5905905048185
 20
1606.741695679352
 30
0.0
  0
VERTEX
  5
8B6
  8
LPU
 10
732.2722348426801
 20
1608.616534109381
 30
0.0
  0
VERTEX
  5
8B7
  8
LPU
 10
732.9420858456979
 20
1610.495618401212
 30
0.0
  0
VERTEX
  5
8B8
  8
LPU
 10
733.6001170693016
 20
1612.378874371816
 30
0.0
  0
VERTEX
  5
8B9
  8
LPU
 10
734.2463025355448
 20
1614.266227673472
 30
0.0
  0
VERTEX
  5
8BA
  8
LPU
 10
734.880616734132
 20
1616.157603796701
 30
0.0
  0
VERTEX
  5
8BB
  8
LPU
 10
735.5030346234248
 20
1618.052928073215
 30
0.0
  0
VERTEX
  5
8BC
  8
LPU
 10
736.1135316314303
 20
1619.952125678855
 30
0.0
  0
VERTEX
  5
8BD
  8
LPU
 10
736.7120836567726
 20
1621.855121636552
 30
0.0
  0
VERTEX
  5
8BE
  8
LPU
 10
737.2986670696421
 20
1623.761840819284
 30
0.0
  0
VERTEX
  5
8BF
  8
LPU
 10
737.8732587127301
 20
1625.672207953043
 30
0.0
  0
VERTEX
  5
8C0
  8
LPU
 10
738.4358359021428
 20
1627.586147619805
 30
0.0
  0
VERTEX
  5
8C1
  8
LPU
 10
738.9863764282957
 20
1629.50358426051
 30
0.0
  0
VERTEX
  5
8C2
  8
LPU
 10
739.5248585567915
 20
1631.424442178041
 30
0.0
  0
VERTEX
  5
8C3
  8
LPU
 10
740.0512610292778
 20
1633.348645540218
 30
0.0
  0
VERTEX
  5
8C4
  8
LPU
 10
740.5655630642864
 20
1635.276118382787
 30
0.0
  0
VERTEX
  5
8C5
  8
LPU
 10
741.0677443580537
 20
1637.206784612419
 30
0.0
  0
VERTEX
  5
8C6
  8
LPU
 10
741.5577850853219
 20
1639.140568009718
 30
0.0
  0
VERTEX
  5
8C7
  8
LPU
 10
742.0356659001222
 20
1641.077392232228
 30
0.0
  0
VERTEX
  5
8C8
  8
LPU
 10
742.5013679365384
 20
1643.017180817443
 30
0.0
  0
VERTEX
  5
8C9
  8
LPU
 10
742.9548728094514
 20
1644.959857185832
 30
0.0
  0
VERTEX
  5
8CA
  8
LPU
 10
743.3961626152654
 20
1646.905344643858
 30
0.0
  0
VERTEX
  5
8CB
  8
LPU
 10
743.8252199326148
 20
1648.853566387008
 30
0.0
  0
VERTEX
  5
8CC
  8
LPU
 10
744.2420278230506
 20
1650.804445502823
 30
0.0
  0
VERTEX
  5
8CD
  8
LPU
 10
744.6465698317115
 20
1652.757904973936
 30
0.0
  0
VERTEX
  5
8CE
  8
LPU
 10
745.0388299879719
 20
1654.713867681112
 30
0.0
  0
VERTEX
  5
8CF
  8
LPU
 10
745.4187928060719
 20
1656.672256406293
 30
0.0
  0
VERTEX
  5
8D0
  8
LPU
 10
745.7864432857305
 20
1658.632993835644
 30
0.0
  0
VERTEX
  5
8D1
  8
LPU
 10
745.8411084591155
 20
1658.934995178252
 30
0.0
  0
SEQEND
  5
E72
  8
LPU
  0
POLYLINE
  5
F9
  8
LPU
 66
     1
 10
0.0
 20
0.0
 30
0.0
  0
VERTEX
  5
8D2
  8
LPU
 10
748.7265539698051
 20
1677.895563151011
 30
0.0
  0
VERTEX
  5
8D3
  8
LPU
 10
748.7828176506289
 20
1678.352475457139
 30
0.0
  0
VERTEX
  5
8D4
  8
LPU
 10
749.0141817898157
 20
1680.33392158993
 30
0.0
  0
VERTEX
  5
8D5
  8
LPU
 10
749.2330916507603
 20
1682.316782304865
 30
0.0
  0
VERTEX
  5
8D6
  8
LPU
 10
749.4395385912758
 20
1684.300979321999
 30
0.0
  0
VERTEX
  5
8D7
  8
LPU
 10
749.633514461191
 20
1686.286434308631
 30
0.0
  0
VERTEX
  5
8D8
  8
LPU
 10
749.8150116026704
 20
1688.273068882399
 30
0.0
  0
VERTEX
  5
8D9
  8
LPU
 10
749.9840228505175
 20
1690.26080461437
 30
0.0
  0
VERTEX
  5
8DA
  8
LPU
 10
750.140541532458
 20
1692.249563032141
 30
0.0
  0
VERTEX
  5
8DB
  8
LPU
 10
750.284561469402
 20
1694.239265622936
 30
0.0
  0
VERTEX
  5
8DC
  8
LPU
 10
750.4160769756893
 20
1696.229833836703
 30
0.0
  0
VERTEX
  5
8DD
  8
LPU
 10
750.4618484693906
 20
1696.995739703053
 30
0.0
  0
SEQEND
  5
E73
  8
LPU
  0
POLYLINE
  5
FA
  8
LPU
 66
     1
 10
0.0
 20
0.0
 30
0.0
  0
VERTEX
  5
8DE
  8
LPU
 10
433.5425906997175
 20
2070.444305252355
 30
0.0
  0
VERTEX
  5
8DF
  8
LPU
 10
433.5425906997175
 20
1964.664638644443
 30
0.0
  0
SEQEND
  5
E74
  8
LPU
  0
POLYLINE
  5
FB
  8
LPU
 66
     1
 10
0.0
 20
0.0
 30
0.0
  0
VERTEX
  5
8E0
  8
LPU
 10
433.5425906997175
 20
1945.914638644443
 30
0.0
  0
VERTEX
  5
8E1
  8
LPU
 10
433.5425906997175
 20
1927.164638644443
 30
0.0
  0
SEQEND
  5
E75
  8
LPU
  0
POLYLINE
  5
FC
  8
LPU
 66
     1
 10
0.0
 20
0.0
 30
0.0
  0
VERTEX
  5
8E2
  8
LPU
 10
433.5425906997175
 20
1908.414638644443
 30
0.0
  0
VERTEX
  5
8E3
  8
LPU
 10
433.5425906997175
 20
1814.664638644443
 30
0.0
  0
SEQEND
  5
E76
  8
LPU
  0
POLYLINE
  5
FD
  8
LPU
 66
     1
 10
0.0
 20
0.0
 30
0.0
  0
VERTEX
  5
8E4
  8
LPU
 10
433.5425906997175
 20
1795.914638644443
 30
0.0
  0
VERTEX
  5
8E5
  8
LPU
 10
433.5425906997175
 20
1777.164638644443
 30
0.0
  0
SEQEND
  5
E77
  8
LPU
  0
POLYLINE
  5
FE
  8
LPU
 66
     1
 10
0.0
 20
0.0
 30
0.0
  0
VERTEX
  5
8E6
  8
LPU
 10
433.5425906997175
 20
1758.414638644443
 30
0.0
  0
VERTEX
  5
8E7
  8
LPU
 10
433.5425906997175
 20
1664.664638644443
 30
0.0
  0
SEQEND
  5
E78
  8
LPU
  0
POLYLINE
  5
FF
  8
LPU
 66
     1
 10
0.0
 20
0.0
 30
0.0
  0
VERTEX
  5
8E8
  8
LPU
 10
433.5425906997175
 20
1645.914638644442
 30
0.0
  0
VERTEX
  5
8E9
  8
LPU
 10
433.5425906997175
 20
1627.164638644442
 30
0.0
  0
SEQEND
  5
E79
  8
LPU
  0
POLYLINE
  5
100
  8
LPU
 66
     1
 10
0.0
 20
0.0
 30
0.0
  0
VERTEX
  5
8EA
  8
LPU
 10
433.5425906997175
 20
1608.414638644442
 30
0.0
  0
VERTEX
  5
8EB
  8
LPU
 10
433.5425906997175
 20
1514.664638644442
 30
0.0
  0
SEQEND
  5
E7A
  8
LPU
  0
POLYLINE
  5
101
  8
LPU
 66
     1
 10
0.0
 20
0.0
 30
0.0
  0
VERTEX
  5
8EC
  8
LPU
 10
433.5425906997175
 20
1495.914638644442
 30
0.0
  0
VERTEX
  5
8ED
  8
LPU
 10
433.5425906997175
 20
1477.164638644442
 30
0.0
  0
SEQEND
  5
E7B
  8
LPU
  0
POLYLINE
  5
102
  8
LPU
 66
     1
 10
0.0
 20
0.0
 30
0.0
  0
VERTEX
  5
8EE
  8
LPU
 10
433.5425906997175
 20
1458.414638644442
 30
0.0
  0
VERTEX
  5
8EF
  8
LPU
 10
433.5425906997175
 20
1352.63497203653
 30
0.0
  0
SEQEND
  5
E7C
  8
LPU
  0
POLYLINE
  5
103
  8
LPU
 66
     1
 10
0.0
 20
0.0
 30
0.0
  0
VERTEX
  5
8F0
  8
LPU
 10
830.6301752698591
 20
1716.16582378726
 30
0.0
  0
VERTEX
  5
8F1
  8
LPU
 10
764.6623908256561
 20
1716.16582378726
 30
0.0
  0
SEQEND
  5
E7D
  8
LPU
  0
POLYLINE
  5
104
  8
LPU
 66
     1
 10
0.0
 20
0.0
 30
0.0
  0
VERTEX
  5
8F2
  8
LPU
 10
745.9123908256561
 20
1716.16582378726
 30
0.0
  0
VERTEX
  5
8F3
  8
LPU
 10
727.1623908256561
 20
1716.16582378726
 30
0.0
  0
SEQEND
  5
E7E
  8
LPU
  0
POLYLINE
  5
105
  8
LPU
 66
     1
 10
0.0
 20
0.0
 30
0.0
  0
VERTEX
  5
8F4
  8
LPU
 10
708.4123908256561
 20
1716.16582378726
 30
0.0
  0
VERTEX
  5
8F5
  8
LPU
 10
614.6623908256561
 20
1716.16582378726
 30
0.0
  0
SEQEND
  5
E7F
  8
LPU
  0
POLYLINE
  5
106
  8
LPU
 66
     1
 10
0.0
 20
0.0
 30
0.0
  0
VERTEX
  5
8F6
  8
LPU
 10
595.9123908256561
 20
1716.16582378726
 30
0.0
  0
VERTEX
  5
8F7
  8
LPU
 10
577.1623908256561
 20
1716.16582378726
 30
0.0
  0
SEQEND
  5
E80
  8
LPU
  0
POLYLINE
  5
107
  8
LPU
 66
     1
 10
0.0
 20
0.0
 30
0.0
  0
VERTEX
  5
8F8
  8
LPU
 10
558.4123908256561
 20
1716.16582378726
 30
0.0
  0
VERTEX
  5
8F9
  8
LPU
 10
464.6623908256561
 20
1716.16582378726
 30
0.0
  0
SEQEND
  5
E81
  8
LPU
  0
POLYLINE
  5
108
  8
LPU
 66
     1
 10
0.0
 20
0.0
 30
0.0
  0
VERTEX
  5
8FA
  8
LPU
 10
445.9123908256561
 20
1716.16582378726
 30
0.0
  0
VERTEX
  5
8FB
  8
LPU
 10
427.1623908256561
 20
1716.16582378726
 30
0.0
  0
SEQEND
  5
E82
  8
LPU
  0
POLYLINE
  5
109
  8
LPU
 66
     1
 10
0.0
 20
0.0
 30
0.0
  0
VERTEX
  5
8FC
  8
LPU
 10
408.4123908256561
 20
1716.16582378726
 30
0.0
  0
VERTEX
  5
8FD
  8
LPU
 10
314.6623908256552
 20
1716.16582378726
 30
0.0
  0
SEQEND
  5
E83
  8
LPU
  0
POLYLINE
  5
10A
  8
LPU
 66
     1
 10
0.0
 20
0.0
 30
0.0
  0
VERTEX
  5
8FE
  8
LPU
 10
295.9123908256547
 20
1716.16582378726
 30
0.0
  0
VERTEX
  5
8FF
  8
LPU
 10
277.1623908256547
 20
1716.16582378726
 30
0.0
  0
SEQEND
  5
E84
  8
LPU
  0
POLYLINE
  5
10B
  8
LPU
 66
     1
 10
0.0
 20
0.0
 30
0.0
  0
VERTEX
  5
900
  8
LPU
 10
258.4123908256543
 20
1716.16582378726
 30
0.0
  0
VERTEX
  5
901
  8
LPU
 10
164.6623908256547
 20
1716.16582378726
 30
0.0
  0
SEQEND
  5
E85
  8
LPU
  0
POLYLINE
  5
10C
  8
LPU
 66
     1
 10
0.0
 20
0.0
 30
0.0
  0
VERTEX
  5
902
  8
LPU
 10
145.9123908256547
 20
1716.16582378726
 30
0.0
  0
VERTEX
  5
903
  8
LPU
 10
127.1623908256547
 20
1716.16582378726
 30
0.0
  0
SEQEND
  5
E86
  8
LPU
  0
POLYLINE
  5
10D
  8
LPU
 66
     1
 10
0.0
 20
0.0
 30
0.0
  0
VERTEX
  5
904
  8
LPU
 10
108.4123908256547
 20
1716.16582378726
 30
0.0
  0
VERTEX
  5
905
  8
LPU
 10
42.44460638145165
 20
1716.16582378726
 30
0.0
  0
SEQEND
  5
E87
  8
LPU
  0
POLYLINE
  5
10E
  8
LPU
 66
     1
 10
0.0
 20
0.0
 30
0.0
  0
VERTEX
  5
906
  8
LPU
 10
116.0425906997157
 20
1236.138728992337
 30
0.0
  0
VERTEX
  5
907
  8
LPU
 10
116.0425906997157
 20
1214.757255466183
 30
0.0
  0
SEQEND
  5
E88
  8
LPU
  0
POLYLINE
  5
10F
  8
LPU
 66
     1
 10
0.0
 20
0.0
 30
0.0
  0
VERTEX
  5
908
  8
LPU
 10
116.0425906997157
 20
1210.257255466183
 30
0.0
  0
VERTEX
  5
909
  8
LPU
 10
116.0425906997157
 20
1205.757255466183
 30
0.0
  0
SEQEND
  5
E89
  8
LPU
  0
POLYLINE
  5
110
  8
LPU
 66
     1
 10
0.0
 20
0.0
 30
0.0
  0
VERTEX
  5
90A
  8
LPU
 10
116.0425906997157
 20
1201.257255466183
 30
0.0
  0
VERTEX
  5
90B
  8
LPU
 10
116.0425906997157
 20
1179.875781940028
 30
0.0
  0
SEQEND
  5
E8A
  8
LPU
  0
POLYLINE
  5
111
  8
LPU
 66
     1
 10
0.0
 20
0.0
 30
0.0
  0
VERTEX
  5
90C
  8
LPU
 10
751.0425906997175
 20
1228.638728992337
 30
0.0
  0
VERTEX
  5
90D
  8
LPU
 10
751.0425906997175
 20
1210.287605900596
 30
0.0
  0
SEQEND
  5
E8B
  8
LPU
  0
POLYLINE
  5
112
  8
LPU
 66
     1
 10
0.0
 20
0.0
 30
0.0
  0
VERTEX
  5
90E
  8
LPU
 10
751.0425906997175
 20
1205.787605900596
 30
0.0
  0
VERTEX
  5
90F
  8
LPU
 10
751.0425906997175
 20
1201.287605900596
 30
0.0
  0
SEQEND
  5
E8C
  8
LPU
  0
POLYLINE
  5
113
  8
LPU
 66
     1
 10
0.0
 20
0.0
 30
0.0
  0
VERTEX
  5
910
  8
LPU
 10
751.0425906997175
 20
1196.787605900596
 30
0.0
  0
VERTEX
  5
911
  8
LPU
 10
751.0425906997175
 20
1178.436482808854
 30
0.0
  0
SEQEND
  5
E8D
  8
LPU
  0
POLYLINE
  5
114
  8
LPU
 66
     1
 10
0.0
 20
0.0
 30
0.0
  0
VERTEX
  5
912
  8
LPU
 10
433.5425906997175
 20
1237.281684205354
 30
0.0
  0
VERTEX
  5
913
  8
LPU
 10
433.5425906997175
 20
1225.279846344703
 30
0.0
  0
SEQEND
  5
E8E
  8
LPU
  0
POLYLINE
  5
115
  8
LPU
 66
     1
 10
0.0
 20
0.0
 30
0.0
  0
VERTEX
  5
914
  8
LPU
 10
433.5425906997175
 20
1220.779846344703
 30
0.0
  0
VERTEX
  5
915
  8
LPU
 10
433.5425906997175
 20
1216.279846344703
 30
0.0
  0
SEQEND
  5
E8F
  8
LPU
  0
POLYLINE
  5
116
  8
LPU
 66
     1
 10
0.0
 20
0.0
 30
0.0
  0
VERTEX
  5
916
  8
LPU
 10
433.5425906997175
 20
1211.779846344703
 30
0.0
  0
VERTEX
  5
917
  8
LPU
 10
433.5425906997175
 20
1189.279846344703
 30
0.0
  0
SEQEND
  5
E90
  8
LPU
  0
POLYLINE
  5
117
  8
LPU
 66
     1
 10
0.0
 20
0.0
 30
0.0
  0
VERTEX
  5
918
  8
LPU
 10
433.5425906997175
 20
1184.779846344703
 30
0.0
  0
VERTEX
  5
919
  8
LPU
 10
433.5425906997175
 20
1180.279846344703
 30
0.0
  0
SEQEND
  5
E91
  8
LPU
  0
POLYLINE
  5
118
  8
LPU
 66
     1
 10
0.0
 20
0.0
 30
0.0
  0
VERTEX
  5
91A
  8
LPU
 10
433.5425906997175
 20
1175.779846344703
 30
0.0
  0
VERTEX
  5
91B
  8
LPU
 10
433.5425906997175
 20
1163.778008484053
 30
0.0
  0
SEQEND
  5
E92
  8
LPU
  0
POLYLINE
  5
11A
  8
WYM
 66
     1
 10
0.0
 20
0.0
 30
0.0
  0
VERTEX
  5
91C
  8
WYM
 10
1572.696136575761
 20
1754.238696267906
 30
0.0
  0
VERTEX
  5
91D
  8
WYM
 10
1933.921263854028
 20
1595.769240347564
 30
0.0
  0
SEQEND
  5
E93
  8
WYM
  0
POLYLINE
  5
11B
  8
WYM
 66
     1
 10
0.0
 20
0.0
 30
0.0
  0
VERTEX
  5
91E
  8
WYM
 10
1511.453867171176
 20
1781.105678598278
 30
0.0
  0
VERTEX
  5
91F
  8
WYM
 10
1300.03679806071
 20
1873.854342476249
 30
0.0
  0
SEQEND
  5
E94
  8
WYM
  0
POLYLINE
  5
11C
  8
WYM
 66
     1
 10
0.0
 20
0.0
 30
0.0
  0
VERTEX
  5
920
  8
WYM
 10
1524.757628887001
 20
1780.339305154267
 30
0.0
  0
VERTEX
  5
921
  8
WYM
 10
1511.483726315585
 20
1775.242594914274
 30
0.0
  0
SEQEND
  5
E95
  8
WYM
  0
POLYLINE
  5
11D
  8
WYM
 66
     1
 10
0.0
 20
0.0
 30
0.0
 70
     1
  0
VERTEX
  5
922
  8
WYM
 10
1520.63238954528
 20
1781.369049638386
 30
0.0
  0
VERTEX
  5
923
  8
WYM
 10
1522.202252423374
 20
1780.680350825998
 30
0.0
  0
VERTEX
  5
924
  8
WYM
 10
1522.786601715937
 20
1779.643998872953
 30
0.0
  0
VERTEX
  5
925
  8
WYM
 10
1522.908725048999
 20
1778.030427508455
 30
0.0
  0
VERTEX
  5
926
  8
WYM
 10
1522.04533479653
 20
1776.069203003301
 30
0.0
  0
VERTEX
  5
927
  8
WYM
 10
1521.120882877529
 20
1774.914764180395
 30
0.0
  0
VERTEX
  5
928
  8
WYM
 10
1519.210917372996
 20
1773.412672216832
 30
0.0
  0
VERTEX
  5
929
  8
WYM
 10
1517.239890201933
 20
1772.717365935518
 30
0.0
  0
VERTEX
  5
92A
  8
WYM
 10
1515.731088990369
 20
1772.599279065657
 30
0.0
  0
VERTEX
  5
92B
  8
WYM
 10
1514.161226112275
 20
1773.287977878045
 30
0.0
  0
VERTEX
  5
92C
  8
WYM
 10
1513.576876819712
 20
1774.32432983109
 30
0.0
  0
VERTEX
  5
92D
  8
WYM
 10
1513.454753486649
 20
1775.937901195588
 30
0.0
  0
VERTEX
  5
92E
  8
WYM
 10
1514.318143739119
 20
1777.899125700742
 30
0.0
  0
VERTEX
  5
92F
  8
WYM
 10
1515.24259565812
 20
1779.053564523648
 30
0.0
  0
VERTEX
  5
930
  8
WYM
 10
1517.152561162653
 20
1780.555656487211
 30
0.0
  0
VERTEX
  5
931
  8
WYM
 10
1519.123588333716
 20
1781.250962768525
 30
0.0
  0
SEQEND
  5
E96
  8
WYM
  0
POLYLINE
  5
11E
  8
WYM
 66
     1
 10
0.0
 20
0.0
 30
0.0
  0
VERTEX
  5
932
  8
WYM
 10
1535.162319741101
 20
1776.554765420597
 30
0.0
  0
VERTEX
  5
933
  8
WYM
 10
1535.56348403407
 20
1777.938770514299
 30
0.0
  0
VERTEX
  5
934
  8
WYM
 10
1534.455847115476
 20
1779.20468873814
 30
0.0
  0
VERTEX
  5
935
  8
WYM
 10
1533.409271863413
 20
1779.663821279731
 30
0.0
  0
VERTEX
  5
936
  8
WYM
 10
1531.377183025818
 20
1779.775300680666
 30
0.0
  0
VERTEX
  5
937
  8
WYM
 10
1528.943929895253
 20
1778.5027749879
 30
0.0
  0
VERTEX
  5
938
  8
WYM
 10
1526.10951247172
 20
1775.846244201431
 30
0.0
  0
VERTEX
  5
939
  8
WYM
 10
1523.798382674218
 20
1772.960147144166
 30
0.0
  0
VERTEX
  5
93A
  8
WYM
 10
1522.472766462248
 20
1770.421703227559
 30
0.0
  0
VERTEX
  5
93B
  8
WYM
 10
1522.59488979531
 20
1768.808131863061
 30
0.0
  0
VERTEX
  5
93C
  8
WYM
 10
1523.702526713905
 20
1767.54221363922
 30
0.0
  0
VERTEX
  5
93D
  8
WYM
 10
1524.225814339936
 20
1767.312647368424
 30
0.0
  0
VERTEX
  5
93E
  8
WYM
 10
1526.257903177531
 20
1767.201167967489
 30
0.0
  0
VERTEX
  5
93F
  8
WYM
 10
1528.228930348595
 20
1767.896474248803
 30
0.0
  0
VERTEX
  5
940
  8
WYM
 10
1530.138895853128
 20
1769.398566212366
 30
0.0
  0
VERTEX
  5
941
  8
WYM
 10
1530.601121812628
 20
1769.975785623819
 30
0.0
  0
VERTEX
  5
942
  8
WYM
 10
1531.464512065098
 20
1771.937010128973
 30
0.0
  0
VERTEX
  5
943
  8
WYM
 10
1531.342388732035
 20
1773.550581493471
 30
0.0
  0
VERTEX
  5
944
  8
WYM
 10
1530.234751813441
 20
1774.816499717312
 30
0.0
  0
VERTEX
  5
945
  8
WYM
 10
1529.71146418741
 20
1775.046065988108
 30
0.0
  0
VERTEX
  5
946
  8
WYM
 10
1527.679375349815
 20
1775.157545389043
 30
0.0
  0
VERTEX
  5
947
  8
WYM
 10
1525.708348178751
 20
1774.462239107729
 30
0.0
  0
VERTEX
  5
948
  8
WYM
 10
1523.798382674218
 20
1772.960147144166
 30
0.0
  0
SEQEND
  5
E97
  8
WYM
  0
POLYLINE
  5
11F
  8
WYM
 66
     1
 10
0.0
 20
0.0
 30
0.0
  0
VERTEX
  5
949
  8
WYM
 10
1532.415231356847
 20
1766.059944082435
 30
0.0
  0
VERTEX
  5
94A
  8
WYM
 10
1532.014067063878
 20
1764.675938988733
 30
0.0
  0
VERTEX
  5
94B
  8
WYM
 10
1533.121703982472
 20
1763.410020764893
 30
0.0
  0
VERTEX
  5
94C
  8
WYM
 10
1534.168279234535
 20
1762.950888223301
 30
0.0
  0
VERTEX
  5
94D
  8
WYM
 10
1536.20036807213
 20
1762.839408822366
 30
0.0
  0
VERTEX
  5
94E
  8
WYM
 10
1538.633621202695
 20
1764.111934515133
 30
0.0
  0
VERTEX
  5
94F
  8
WYM
 10
1541.468038626228
 20
1766.768465301601
 30
0.0
  0
VERTEX
  5
950
  8
WYM
 10
1543.77916842373
 20
1769.654562358866
 30
0.0
  0
VERTEX
  5
951
  8
WYM
 10
1545.1047846357
 20
1772.193006275474
 30
0.0
  0
VERTEX
  5
952
  8
WYM
 10
1544.982661302638
 20
1773.806577639971
 30
0.0
  0
VERTEX
  5
953
  8
WYM
 10
1543.875024384044
 20
1775.072495863812
 30
0.0
  0
VERTEX
  5
954
  8
WYM
 10
1543.351736758012
 20
1775.302062134608
 30
0.0
  0
VERTEX
  5
955
  8
WYM
 10
1541.319647920417
 20
1775.413541535543
 30
0.0
  0
VERTEX
  5
956
  8
WYM
 10
1539.348620749353
 20
1774.718235254229
 30
0.0
  0
VERTEX
  5
957
  8
WYM
 10
1537.43865524482
 20
1773.216143290666
 30
0.0
  0
VERTEX
  5
958
  8
WYM
 10
1536.97642928532
 20
1772.638923879213
 30
0.0
  0
VERTEX
  5
959
  8
WYM
 10
1536.113039032851
 20
1770.677699374059
 30
0.0
  0
VERTEX
  5
95A
  8
WYM
 10
1536.235162365913
 20
1769.064128009561
 30
0.0
  0
VERTEX
  5
95B
  8
WYM
 10
1537.342799284507
 20
1767.79820978572
 30
0.0
  0
VERTEX
  5
95C
  8
WYM
 10
1537.866086910539
 20
1767.568643514924
 30
0.0
  0
VERTEX
  5
95D
  8
WYM
 10
1539.898175748134
 20
1767.457164113989
 30
0.0
  0
VERTEX
  5
95E
  8
WYM
 10
1541.869202919198
 20
1768.152470395303
 30
0.0
  0
VERTEX
  5
95F
  8
WYM
 10
1543.77916842373
 20
1769.654562358866
 30
0.0
  0
SEQEND
  5
E98
  8
WYM
  0
POLYLINE
  5
120
  8
WYM
 66
     1
 10
0.0
 20
0.0
 30
0.0
  0
VERTEX
  5
960
  8
WYM
 10
1548.889921350984
 20
1768.972471015404
 30
0.0
  0
VERTEX
  5
961
  8
WYM
 10
1549.352147310484
 20
1769.549690426857
 30
0.0
  0
VERTEX
  5
962
  8
WYM
 10
1550.799886855516
 20
1770.474562978967
 30
0.0
  0
VERTEX
  5
963
  8
WYM
 10
1551.785400441048
 20
1770.822216119624
 30
0.0
  0
VERTEX
  5
964
  8
WYM
 10
1553.294201652612
 20
1770.940302989485
 30
0.0
  0
VERTEX
  5
965
  8
WYM
 10
1555.387352156738
 20
1770.022037906301
 30
0.0
  0
VERTEX
  5
966
  8
WYM
 10
1555.971701449301
 20
1768.985685953256
 30
0.0
  0
VERTEX
  5
967
  8
WYM
 10
1556.032763115832
 20
1768.178900271007
 30
0.0
  0
VERTEX
  5
968
  8
WYM
 10
1555.631598822863
 20
1766.794895177306
 30
0.0
  0
VERTEX
  5
969
  8
WYM
 10
1554.707146903862
 20
1765.6404563544
 30
0.0
  0
VERTEX
  5
96A
  8
WYM
 10
1553.259407358829
 20
1764.71558380229
 30
0.0
  0
VERTEX
  5
96B
  8
WYM
 10
1550.826154228265
 20
1763.443058109523
 30
0.0
  0
VERTEX
  5
96C
  8
WYM
 10
1540.971018372946
 20
1759.966526702953
 30
0.0
  0
VERTEX
  5
96D
  8
WYM
 10
1548.297045137387
 20
1756.75259891181
 30
0.0
  0
SEQEND
  5
E99
  8
WYM
  0
POLYLINE
  5
121
  8
WYM
 66
     1
 10
0.0
 20
0.0
 30
0.0
 70
     1
  0
VERTEX
  5
96E
  8
WYM
 10
1552.48334614564
 20
1754.916068745442
 30
0.0
  0
VERTEX
  5
96F
  8
WYM
 10
1553.468859731172
 20
1755.263721886099
 30
0.0
  0
VERTEX
  5
970
  8
WYM
 10
1553.407798064641
 20
1756.070507568348
 30
0.0
  0
VERTEX
  5
971
  8
WYM
 10
1552.422284479109
 20
1755.722854427691
 30
0.0
  0
SEQEND
  5
E9A
  8
WYM
  0
POLYLINE
  5
122
  8
WYM
 66
     1
 10
0.0
 20
0.0
 30
0.0
  0
VERTEX
  5
972
  8
WYM
 10
1564.58855013193
 20
1762.085482891526
 30
0.0
  0
VERTEX
  5
973
  8
WYM
 10
1565.05077609143
 20
1762.662702302978
 30
0.0
  0
VERTEX
  5
974
  8
WYM
 10
1566.498515636463
 20
1763.587574855088
 30
0.0
  0
VERTEX
  5
975
  8
WYM
 10
1567.484029221995
 20
1763.935227995745
 30
0.0
  0
VERTEX
  5
976
  8
WYM
 10
1568.992830433558
 20
1764.053314865606
 30
0.0
  0
VERTEX
  5
977
  8
WYM
 10
1571.085980937684
 20
1763.135049782423
 30
0.0
  0
VERTEX
  5
978
  8
WYM
 10
1571.670330230247
 20
1762.098697829377
 30
0.0
  0
VERTEX
  5
979
  8
WYM
 10
1571.731391896778
 20
1761.291912147129
 30
0.0
  0
VERTEX
  5
97A
  8
WYM
 10
1571.330227603809
 20
1759.907907053427
 30
0.0
  0
VERTEX
  5
97B
  8
WYM
 10
1570.405775684808
 20
1758.753468230521
 30
0.0
  0
VERTEX
  5
97C
  8
WYM
 10
1568.958036139776
 20
1757.828595678411
 30
0.0
  0
VERTEX
  5
97D
  8
WYM
 10
1566.524783009212
 20
1756.556069985644
 30
0.0
  0
VERTEX
  5
97E
  8
WYM
 10
1556.669647153892
 20
1753.079538579075
 30
0.0
  0
VERTEX
  5
97F
  8
WYM
 10
1563.995673918334
 20
1749.865610787931
 30
0.0
  0
SEQEND
  5
E9B
  8
WYM
  0
POLYLINE
  5
123
  8
WYM
 66
     1
 10
0.0
 20
0.0
 30
0.0
  0
VERTEX
  5
980
  8
WYM
 10
1919.180611235967
 20
1599.50597159207
 30
0.0
  0
VERTEX
  5
981
  8
WYM
 10
1921.189316105432
 20
1604.084738319846
 30
0.0
  0
VERTEX
  5
982
  8
WYM
 10
1933.921263854028
 20
1595.769240347564
 30
0.0
  0
SEQEND
  5
E9C
  8
WYM
  0
POLYLINE
  5
124
  8
WYM
 66
     1
 10
0.0
 20
0.0
 30
0.0
  0
VERTEX
  5
983
  8
WYM
 10
1314.77745067877
 20
1870.117611231743
 30
0.0
  0
VERTEX
  5
984
  8
WYM
 10
1312.768745809305
 20
1865.538844503967
 30
0.0
  0
VERTEX
  5
985
  8
WYM
 10
1300.03679806071
 20
1873.854342476249
 30
0.0
  0
SEQEND
  5
E9D
  8
WYM
  0
POLYLINE
  5
125
  8
WYM
 66
     1
 10
0.0
 20
0.0
 30
0.0
  0
VERTEX
  5
986
  8
WYM
 10
1270.441804291098
 20
1752.899137340038
 30
0.0
  0
VERTEX
  5
987
  8
WYM
 10
1228.788812606021
 20
1725.059627939136
 30
0.0
  0
SEQEND
  5
E9E
  8
WYM
  0
POLYLINE
  5
126
  8
WYM
 66
     1
 10
0.0
 20
0.0
 30
0.0
  0
VERTEX
  5
988
  8
WYM
 10
1270.441804291098
 20
1752.899137340038
 30
0.0
  0
VERTEX
  5
989
  8
WYM
 10
1282.912759885432
 20
1761.234319795398
 30
0.0
  0
SEQEND
  5
E9F
  8
WYM
  0
POLYLINE
  5
127
  8
WYM
 66
     1
 10
0.0
 20
0.0
 30
0.0
  0
VERTEX
  5
98A
  8
WYM
 10
1216.317857011687
 20
1716.724445483776
 30
0.0
  0
VERTEX
  5
98B
  8
WYM
 10
1203.846901417353
 20
1708.389263028416
 30
0.0
  0
SEQEND
  5
EA0
  8
WYM
  0
POLYLINE
  5
128
  8
WYM
 66
     1
 10
0.0
 20
0.0
 30
0.0
  0
VERTEX
  5
98C
  8
WYM
 10
1289.136612544901
 20
1770.978545385457
 30
0.0
  0
VERTEX
  5
98D
  8
WYM
 10
1286.289586900574
 20
1757.047738168127
 30
0.0
  0
SEQEND
  5
EA1
  8
WYM
  0
POLYLINE
  5
129
  8
WYM
 66
     1
 10
0.0
 20
0.0
 30
0.0
 70
     1
  0
VERTEX
  5
98E
  8
WYM
 10
1286.048814861413
 20
1768.055622397266
 30
0.0
  0
VERTEX
  5
98F
  8
WYM
 10
1287.474066929337
 20
1769.008214677878
 30
0.0
  0
VERTEX
  5
990
  8
WYM
 10
1288.66202544962
 20
1768.943068531524
 30
0.0
  0
VERTEX
  5
991
  8
WYM
 10
1290.087774444904
 20
1768.177714718407
 30
0.0
  0
VERTEX
  5
992
  8
WYM
 10
1291.276229892547
 20
1766.394622478324
 30
0.0
  0
VERTEX
  5
993
  8
WYM
 10
1291.751810842549
 20
1764.994207144798
 30
0.0
  0
VERTEX
  5
994
  8
WYM
 10
1291.990098244909
 20
1762.576053384307
 30
0.0
  0
VERTEX
  5
995
  8
WYM
 10
1291.515511149628
 20
1760.540576530373
 30
0.0
  0
VERTEX
  5
996
  8
WYM
 10
1290.803133579346
 20
1759.205307343202
 30
0.0
  0
VERTEX
  5
997
  8
WYM
 10
1289.377881511422
 20
1758.252715062589
 30
0.0
  0
VERTEX
  5
998
  8
WYM
 10
1288.189922991139
 20
1758.317861208944
 30
0.0
  0
VERTEX
  5
999
  8
WYM
 10
1286.764173995855
 20
1759.083215022061
 30
0.0
  0
VERTEX
  5
99A
  8
WYM
 10
1285.575718548212
 20
1760.866307262144
 30
0.0
  0
VERTEX
  5
99B
  8
WYM
 10
1285.10013759821
 20
1762.266722595669
 30
0.0
  0
VERTEX
  5
99C
  8
WYM
 10
1284.86185019585
 20
1764.684876356161
 30
0.0
  0
VERTEX
  5
99D
  8
WYM
 10
1285.336437291131
 20
1766.720353210095
 30
0.0
  0
SEQEND
  5
EA2
  8
WYM
  0
POLYLINE
  5
12A
  8
WYM
 66
     1
 10
0.0
 20
0.0
 30
0.0
  0
VERTEX
  5
99E
  8
WYM
 10
1291.986122826029
 20
1776.319622134141
 30
0.0
  0
VERTEX
  5
99F
  8
WYM
 10
1297.212047075084
 20
1779.812460496387
 30
0.0
  0
VERTEX
  5
9A0
  8
WYM
 10
1296.263866739241
 20
1772.305614601062
 30
0.0
  0
VERTEX
  5
9A1
  8
WYM
 10
1297.689118807165
 20
1773.258206881674
 30
0.0
  0
VERTEX
  5
9A2
  8
WYM
 10
1298.877077327448
 20
1773.19306073532
 30
0.0
  0
VERTEX
  5
9A3
  8
WYM
 10
1299.58995182509
 20
1772.810383828762
 30
0.0
  0
VERTEX
  5
9A4
  8
WYM
 10
1300.778407272734
 20
1771.027291588678
 30
0.0
  0
VERTEX
  5
9A5
  8
WYM
 10
1301.253988222735
 20
1769.626876255153
 30
0.0
  0
VERTEX
  5
9A6
  8
WYM
 10
1301.492275625095
 20
1767.208722494661
 30
0.0
  0
VERTEX
  5
9A7
  8
WYM
 10
1301.017688529814
 20
1765.173245640727
 30
0.0
  0
VERTEX
  5
9A8
  8
WYM
 10
1299.830226936891
 20
1763.520445693352
 30
0.0
  0
VERTEX
  5
9A9
  8
WYM
 10
1298.404974868967
 20
1762.56785341274
 30
0.0
  0
VERTEX
  5
9AA
  8
WYM
 10
1296.741932326042
 20
1762.31546879889
 30
0.0
  0
VERTEX
  5
9AB
  8
WYM
 10
1296.0290578284
 20
1762.698145705448
 30
0.0
  0
VERTEX
  5
9AC
  8
WYM
 10
1295.078392855758
 20
1763.781030278769
 30
0.0
  0
SEQEND
  5
EA3
  8
WYM
  0
POLYLINE
  5
12B
  8
WYM
 66
     1
 10
0.0
 20
0.0
 30
0.0
  0
VERTEX
  5
9AD
  8
WYM
 10
1304.580073308584
 20
1770.131645482853
 30
0.0
  0
VERTEX
  5
9AE
  8
WYM
 10
1305.530738281227
 20
1769.048760909532
 30
0.0
  0
VERTEX
  5
9AF
  8
WYM
 10
1306.243612778869
 20
1768.666084002973
 30
0.0
  0
VERTEX
  5
9B0
  8
WYM
 10
1307.906655321793
 20
1768.918468616823
 30
0.0
  0
VERTEX
  5
9B1
  8
WYM
 10
1309.331907389717
 20
1769.871060897436
 30
0.0
  0
VERTEX
  5
9B2
  8
WYM
 10
1310.51936898264
 20
1771.523860844811
 30
0.0
  0
VERTEX
  5
9B3
  8
WYM
 10
1310.993956077922
 20
1773.559337698745
 30
0.0
  0
VERTEX
  5
9B4
  8
WYM
 10
1310.755668675561
 20
1775.977491459236
 30
0.0
  0
VERTEX
  5
9B5
  8
WYM
 10
1310.28008772556
 20
1777.377906792762
 30
0.0
  0
VERTEX
  5
9B6
  8
WYM
 10
1309.091632277916
 20
1779.160999032845
 30
0.0
  0
VERTEX
  5
9B7
  8
WYM
 10
1307.665883282633
 20
1779.926352845962
 30
0.0
  0
VERTEX
  5
9B8
  8
WYM
 10
1306.002840739708
 20
1779.673968232112
 30
0.0
  0
VERTEX
  5
9B9
  8
WYM
 10
1304.577588671784
 20
1778.7213759515
 30
0.0
  0
VERTEX
  5
9BA
  8
WYM
 10
1303.390127078861
 20
1777.068576004124
 30
0.0
  0
VERTEX
  5
9BB
  8
WYM
 10
1303.15283353122
 20
1776.050837577158
 30
0.0
  0
VERTEX
  5
9BC
  8
WYM
 10
1301.487803278856
 20
1782.670237338225
 30
0.0
  0
VERTEX
  5
9BD
  8
WYM
 10
1306.238643505269
 20
1785.845544940267
 30
0.0
  0
SEQEND
  5
EA4
  8
WYM
  0
POLYLINE
  5
12C
  8
WYM
 66
     1
 10
0.0
 20
0.0
 30
0.0
 70
     1
  0
VERTEX
  5
9BE
  8
WYM
 10
1315.983083706696
 20
1774.316491540295
 30
0.0
  0
VERTEX
  5
9BF
  8
WYM
 10
1316.220377254336
 20
1775.334229967262
 30
0.0
  0
VERTEX
  5
9C0
  8
WYM
 10
1315.507502756694
 20
1775.71690687382
 30
0.0
  0
VERTEX
  5
9C1
  8
WYM
 10
1315.270209209054
 20
1774.699168446853
 30
0.0
  0
SEQEND
  5
EA5
  8
WYM
  0
POLYLINE
  5
12D
  8
WYM
 66
     1
 10
0.0
 20
0.0
 30
0.0
  0
VERTEX
  5
9C2
  8
WYM
 10
1317.166569880739
 20
1789.712860237504
 30
0.0
  0
VERTEX
  5
9C3
  8
WYM
 10
1317.878947451021
 20
1791.048129424675
 30
0.0
  0
VERTEX
  5
9C4
  8
WYM
 10
1318.590828093943
 20
1794.101344705576
 30
0.0
  0
VERTEX
  5
9C5
  8
WYM
 10
1323.584428068956
 20
1779.396983703562
 30
0.0
  0
SEQEND
  5
EA6
  8
WYM
  0
POLYLINE
  5
12E
  8
WYM
 66
     1
 10
0.0
 20
0.0
 30
0.0
  0
VERTEX
  5
9C6
  8
WYM
 10
1228.788812606021
 20
1725.059627939136
 30
0.0
  0
VERTEX
  5
9C7
  8
WYM
 10
1257.970848696764
 20
1744.563954884678
 30
0.0
  0
SEQEND
  5
EA7
  8
WYM
  0
POLYLINE
  5
12F
  8
WYM
 66
     1
 10
0.0
 20
0.0
 30
0.0
  0
VERTEX
  5
9C8
  8
WYM
 10
1217.70705408758
 20
1714.64595288472
 30
0.0
  0
VERTEX
  5
9C9
  8
WYM
 10
1214.928659935794
 20
1718.802938082831
 30
0.0
  0
VERTEX
  5
9CA
  8
WYM
 10
1228.788812606021
 20
1725.059627939136
 30
0.0
  0
SEQEND
  5
EA8
  8
WYM
  0
POLYLINE
  5
130
  8
WYM
 66
     1
 10
0.0
 20
0.0
 30
0.0
  0
VERTEX
  5
9CB
  8
WYM
 10
1269.052607215204
 20
1754.977629939094
 30
0.0
  0
VERTEX
  5
9CC
  8
WYM
 10
1271.831001366991
 20
1750.820644740982
 30
0.0
  0
VERTEX
  5
9CD
  8
WYM
 10
1257.970848696764
 20
1744.563954884678
 30
0.0
  0
SEQEND
  5
EA9
  8
WYM
  0
POLYLINE
  5
131
  8
WYM
 66
     1
 10
0.0
 20
0.0
 30
0.0
  0
VERTEX
  5
9CE
  8
WYM
 10
2046.775614258195
 20
1770.848525392197
 30
0.0
  0
VERTEX
  5
9CF
  8
WYM
 10
1992.679830651394
 20
1734.811791411907
 30
0.0
  0
SEQEND
  5
EAA
  8
WYM
  0
POLYLINE
  5
132
  8
WYM
 66
     1
 10
0.0
 20
0.0
 30
0.0
  0
VERTEX
  5
9D0
  8
WYM
 10
2046.775614258195
 20
1770.848525392197
 30
0.0
  0
VERTEX
  5
9D1
  8
WYM
 10
2059.259256628995
 20
1779.164694772264
 30
0.0
  0
SEQEND
  5
EAB
  8
WYM
  0
POLYLINE
  5
133
  8
WYM
 66
     1
 10
0.0
 20
0.0
 30
0.0
  0
VERTEX
  5
9D2
  8
WYM
 10
2061.984686615397
 20
1771.968488734698
 30
0.0
  0
VERTEX
  5
9D3
  8
WYM
 10
2057.013499127185
 20
1786.680441975007
 30
0.0
  0
VERTEX
  5
9D4
  8
WYM
 10
2061.293605082888
 20
1789.531700048173
 30
0.0
  0
VERTEX
  5
9D5
  8
WYM
 10
2062.957030281847
 20
1789.781550203975
 30
0.0
  0
VERTEX
  5
9D6
  8
WYM
 10
2063.669320823982
 20
1789.39778745463
 30
0.0
  0
VERTEX
  5
9D7
  8
WYM
 10
2064.618334579842
 20
1788.313455503365
 30
0.0
  0
VERTEX
  5
9D8
  8
WYM
 10
2065.091781007291
 20
1786.912317099526
 30
0.0
  0
VERTEX
  5
9D9
  8
WYM
 10
2065.089660106329
 20
1785.194372243113
 30
0.0
  0
VERTEX
  5
9DA
  8
WYM
 10
2064.850815991641
 20
1784.176996588619
 30
0.0
  0
VERTEX
  5
9DB
  8
WYM
 10
2063.660837220132
 20
1782.526008028978
 30
0.0
  0
VERTEX
  5
9DC
  8
WYM
 10
2059.380731264429
 20
1779.674749955812
 30
0.0
  0
SEQEND
  5
EAC
  8
WYM
  0
POLYLINE
  5
134
  8
WYM
 66
     1
 10
0.0
 20
0.0
 30
0.0
  0
VERTEX
  5
9DD
  8
WYM
 10
2062.709702563309
 20
1781.89239512383
 30
0.0
  0
VERTEX
  5
9DE
  8
WYM
 10
2068.642629213157
 20
1776.403779070733
 30
0.0
  0
SEQEND
  5
EAD
  8
WYM
  0
POLYLINE
  5
135
  8
WYM
 66
     1
 10
0.0
 20
0.0
 30
0.0
  0
VERTEX
  5
9DF
  8
WYM
 10
2070.549140328728
 20
1781.106894593855
 30
0.0
  0
VERTEX
  5
9E0
  8
WYM
 10
2071.498154084588
 20
1780.02256264259
 30
0.0
  0
VERTEX
  5
9E1
  8
WYM
 10
2072.210444626724
 20
1779.638799893245
 30
0.0
  0
VERTEX
  5
9E2
  8
WYM
 10
2073.873869825683
 20
1779.888650049047
 30
0.0
  0
VERTEX
  5
9E3
  8
WYM
 10
2075.300571810917
 20
1780.839069406769
 30
0.0
  0
VERTEX
  5
9E4
  8
WYM
 10
2076.490550582427
 20
1782.49005796641
 30
0.0
  0
VERTEX
  5
9E5
  8
WYM
 10
2076.968238811801
 20
1784.524809275398
 30
0.0
  0
VERTEX
  5
9E6
  8
WYM
 10
2076.733636499039
 20
1786.94332333373
 30
0.0
  0
VERTEX
  5
9E7
  8
WYM
 10
2076.26019007159
 20
1788.344461737569
 30
0.0
  0
VERTEX
  5
9E8
  8
WYM
 10
2075.074453102006
 20
1790.129362890754
 30
0.0
  0
VERTEX
  5
9E9
  8
WYM
 10
2073.649872017734
 20
1790.896888389444
 30
0.0
  0
VERTEX
  5
9EA
  8
WYM
 10
2071.986446818776
 20
1790.647038233642
 30
0.0
  0
VERTEX
  5
9EB
  8
WYM
 10
2070.559744833542
 20
1789.69661887592
 30
0.0
  0
VERTEX
  5
9EC
  8
WYM
 10
2069.369766062031
 20
1788.045630316279
 30
0.0
  0
VERTEX
  5
9ED
  8
WYM
 10
2069.130921947344
 20
1787.028254661785
 30
0.0
  0
VERTEX
  5
9EE
  8
WYM
 10
2067.475980352236
 20
1793.650183931635
 30
0.0
  0
VERTEX
  5
9EF
  8
WYM
 10
2072.231653636351
 20
1796.818248457374
 30
0.0
  0
SEQEND
  5
EAE
  8
WYM
  0
POLYLINE
  5
136
  8
WYM
 66
     1
 10
0.0
 20
0.0
 30
0.0
 70
     1
  0
VERTEX
  5
9F0
  8
WYM
 10
2084.811918379146
 20
1787.175198458249
 30
0.0
  0
VERTEX
  5
9F1
  8
WYM
 10
2086.001897150656
 20
1788.82618701789
 30
0.0
  0
VERTEX
  5
9F2
  8
WYM
 10
2086.242862166305
 20
1791.561507528796
 30
0.0
  0
VERTEX
  5
9F3
  8
WYM
 10
2085.534813426095
 20
1795.381159990968
 30
0.0
  0
VERTEX
  5
9F4
  8
WYM
 10
2084.824643784922
 20
1797.482867596726
 30
0.0
  0
VERTEX
  5
9F5
  8
WYM
 10
2083.165460387888
 20
1800.66890715375
 30
0.0
  0
VERTEX
  5
9F6
  8
WYM
 10
2081.504156089892
 20
1802.137001854361
 30
0.0
  0
VERTEX
  5
9F7
  8
WYM
 10
2079.840730890934
 20
1801.887151698558
 30
0.0
  0
VERTEX
  5
9F8
  8
WYM
 10
2078.889596234111
 20
1801.25353879341
 30
0.0
  0
VERTEX
  5
9F9
  8
WYM
 10
2077.699617462601
 20
1799.602550233769
 30
0.0
  0
VERTEX
  5
9FA
  8
WYM
 10
2077.458652446951
 20
1796.867229722862
 30
0.0
  0
VERTEX
  5
9FB
  8
WYM
 10
2078.166701187162
 20
1793.047577260691
 30
0.0
  0
VERTEX
  5
9FC
  8
WYM
 10
2078.876870828335
 20
1790.945869654932
 30
0.0
  0
VERTEX
  5
9FD
  8
WYM
 10
2080.536054225368
 20
1787.759830097909
 30
0.0
  0
VERTEX
  5
9FE
  8
WYM
 10
2082.197358523364
 20
1786.291735397298
 30
0.0
  0
VERTEX
  5
9FF
  8
WYM
 10
2083.860783722323
 20
1786.541585553101
 30
0.0
  0
SEQEND
  5
EAF
  8
WYM
  0
POLYLINE
  5
137
  8
WYM
 66
     1
 10
0.0
 20
0.0
 30
0.0
  0
VERTEX
  5
A00
  8
WYM
 10
1992.679830651394
 20
1734.811791411907
 30
0.0
  0
VERTEX
  5
A01
  8
WYM
 10
2034.291971887395
 20
1762.53235601213
 30
0.0
  0
SEQEND
  5
EB0
  8
WYM
  0
POLYLINE
  5
138
  8
WYM
 66
     1
 10
0.0
 20
0.0
 30
0.0
  0
VERTEX
  5
A02
  8
WYM
 10
2045.389586028184
 20
1772.929132453997
 30
0.0
  0
VERTEX
  5
A03
  8
WYM
 10
2048.161642488206
 20
1768.767918330397
 30
0.0
  0
VERTEX
  5
A04
  8
WYM
 10
2034.291971887395
 20
1762.53235601213
 30
0.0
  0
SEQEND
  5
EB1
  8
WYM
  0
POLYLINE
  5
139
  8
WYM
 66
     1
 10
0.0
 20
0.0
 30
0.0
  0
VERTEX
  5
A05
  8
WYM
 10
1193.379830651392
 20
1180.851149033781
 30
0.0
  0
VERTEX
  5
A06
  8
WYM
 10
1193.379830651392
 20
1059.86279767457
 30
0.0
  0
SEQEND
  5
EB2
  8
WYM
  0
POLYLINE
  5
13A
  8
WYM
 66
     1
 10
0.0
 20
0.0
 30
0.0
  0
VERTEX
  5
A07
  8
WYM
 10
2042.679830651394
 20
1180.851149033781
 30
0.0
  0
VERTEX
  5
A08
  8
WYM
 10
2042.679830651394
 20
1059.86279767457
 30
0.0
  0
SEQEND
  5
EB3
  8
WYM
  0
POLYLINE
  5
13B
  8
WYM
 66
     1
 10
0.0
 20
0.0
 30
0.0
  0
VERTEX
  5
A09
  8
WYM
 10
1208.379830651392
 20
1062.36279767457
 30
0.0
  0
VERTEX
  5
A0A
  8
WYM
 10
2027.679830651394
 20
1062.36279767457
 30
0.0
  0
SEQEND
  5
EB4
  8
WYM
  0
POLYLINE
  5
13C
  8
WYM
 66
     1
 10
0.0
 20
0.0
 30
0.0
  0
VERTEX
  5
A0B
  8
WYM
 10
1208.379830651392
 20
1064.86279767457
 30
0.0
  0
VERTEX
  5
A0C
  8
WYM
 10
1208.379830651392
 20
1059.86279767457
 30
0.0
  0
VERTEX
  5
A0D
  8
WYM
 10
1193.379830651392
 20
1062.36279767457
 30
0.0
  0
SEQEND
  5
EB5
  8
WYM
  0
POLYLINE
  5
13D
  8
WYM
 66
     1
 10
0.0
 20
0.0
 30
0.0
  0
VERTEX
  5
A0E
  8
WYM
 10
2027.679830651394
 20
1059.86279767457
 30
0.0
  0
VERTEX
  5
A0F
  8
WYM
 10
2027.679830651394
 20
1064.86279767457
 30
0.0
  0
VERTEX
  5
A10
  8
WYM
 10
2042.679830651394
 20
1062.36279767457
 30
0.0
  0
SEQEND
  5
EB6
  8
WYM
  0
POLYLINE
  5
13E
  8
WYM
 66
     1
 10
0.0
 20
0.0
 30
0.0
 70
     1
  0
VERTEX
  5
A11
  8
WYM
 10
1594.877354565301
 20
1077.36279767457
 30
0.0
  0
VERTEX
  5
A12
  8
WYM
 10
1597.163068851016
 20
1077.36279767457
 30
0.0
  0
VERTEX
  5
A13
  8
WYM
 10
1599.068746845609
 20
1078.077083388855
 30
0.0
  0
VERTEX
  5
A14
  8
WYM
 10
1599.831567697346
 20
1078.791369103141
 30
0.0
  0
VERTEX
  5
A15
  8
WYM
 10
1600.78578082939
 20
1080.219940531713
 30
0.0
  0
VERTEX
  5
A16
  8
WYM
 10
1601.359957670314
 20
1082.36279767457
 30
0.0
  0
VERTEX
  5
A17
  8
WYM
 10
1601.171313659501
 20
1083.791369103141
 30
0.0
  0
VERTEX
  5
A18
  8
WYM
 10
1600.41124107726
 20
1085.219940531713
 30
0.0
  0
VERTEX
  5
A19
  8
WYM
 10
1598.888347643282
 20
1085.934226245998
 30
0.0
  0
VERTEX
  5
A1A
  8
WYM
 10
1596.794025637876
 20
1086.648511960284
 30
0.0
  0
VERTEX
  5
A1B
  8
WYM
 10
1595.842560775327
 20
1087.36279767457
 30
0.0
  0
VERTEX
  5
A1C
  8
WYM
 10
1595.653916764514
 20
1088.791369103141
 30
0.0
  0
VERTEX
  5
A1D
  8
WYM
 10
1596.03670132513
 20
1090.219940531713
 30
0.0
  0
VERTEX
  5
A1E
  8
WYM
 10
1596.990914457175
 20
1091.648511960284
 30
0.0
  0
VERTEX
  5
A1F
  8
WYM
 10
1598.896592451768
 20
1092.36279767457
 30
0.0
  0
VERTEX
  5
A20
  8
WYM
 10
1601.182306737483
 20
1092.36279767457
 30
0.0
  0
VERTEX
  5
A21
  8
WYM
 10
1602.70520017146
 20
1091.648511960284
 30
0.0
  0
VERTEX
  5
A22
  8
WYM
 10
1602.893844182273
 20
1090.219940531713
 30
0.0
  0
VERTEX
  5
A23
  8
WYM
 10
1602.511059621657
 20
1088.791369103141
 30
0.0
  0
VERTEX
  5
A24
  8
WYM
 10
1601.556846489612
 20
1087.36279767457
 30
0.0
  0
VERTEX
  5
A25
  8
WYM
 10
1600.222597066448
 20
1086.648511960284
 30
0.0
  0
VERTEX
  5
A26
  8
WYM
 10
1597.745490500425
 20
1085.934226245998
 30
0.0
  0
VERTEX
  5
A27
  8
WYM
 10
1595.839812505832
 20
1085.219940531713
 30
0.0
  0
VERTEX
  5
A28
  8
WYM
 10
1594.314170802359
 20
1083.791369103141
 30
0.0
  0
VERTEX
  5
A29
  8
WYM
 10
1593.359957670314
 20
1082.36279767457
 30
0.0
  0
VERTEX
  5
A2A
  8
WYM
 10
1592.78578082939
 20
1080.219940531713
 30
0.0
  0
VERTEX
  5
A2B
  8
WYM
 10
1592.974424840203
 20
1078.791369103141
 30
0.0
  0
VERTEX
  5
A2C
  8
WYM
 10
1593.354461131324
 20
1078.077083388855
 30
0.0
  0
SEQEND
  5
EB7
  8
WYM
  0
POLYLINE
  5
13F
  8
WYM
 66
     1
 10
0.0
 20
0.0
 30
0.0
  0
VERTEX
  5
A2D
  8
WYM
 10
1609.163068851016
 20
1077.36279767457
 30
0.0
  0
VERTEX
  5
A2E
  8
WYM
 10
1613.182306737483
 20
1092.36279767457
 30
0.0
  0
VERTEX
  5
A2F
  8
WYM
 10
1604.788529098886
 20
1082.36279767457
 30
0.0
  0
VERTEX
  5
A30
  8
WYM
 10
1613.359957670314
 20
1082.36279767457
 30
0.0
  0
SEQEND
  5
EB8
  8
WYM
  0
POLYLINE
  5
140
  8
WYM
 66
     1
 10
0.0
 20
0.0
 30
0.0
  0
VERTEX
  5
A31
  8
WYM
 10
1616.022959977654
 20
1079.505654817427
 30
0.0
  0
VERTEX
  5
A32
  8
WYM
 10
1616.211603988466
 20
1078.077083388855
 30
0.0
  0
VERTEX
  5
A33
  8
WYM
 10
1617.734497422444
 20
1077.36279767457
 30
0.0
  0
VERTEX
  5
A34
  8
WYM
 10
1618.877354565301
 20
1077.36279767457
 30
0.0
  0
VERTEX
  5
A35
  8
WYM
 10
1620.783032559895
 20
1078.077083388855
 30
0.0
  0
VERTEX
  5
A36
  8
WYM
 10
1622.500066543676
 20
1080.219940531713
 30
0.0
  0
VERTEX
  5
A37
  8
WYM
 10
1624.028456516644
 20
1083.791369103141
 30
0.0
  0
VERTEX
  5
A38
  8
WYM
 10
1624.985417918184
 20
1087.36279767457
 30
0.0
  0
VERTEX
  5
A39
  8
WYM
 10
1625.179558467987
 20
1090.219940531713
 30
0.0
  0
VERTEX
  5
A3A
  8
WYM
 10
1624.419485885746
 20
1091.648511960284
 30
0.0
  0
VERTEX
  5
A3B
  8
WYM
 10
1622.896592451768
 20
1092.36279767457
 30
0.0
  0
VERTEX
  5
A3C
  8
WYM
 10
1622.325163880339
 20
1092.36279767457
 30
0.0
  0
VERTEX
  5
A3D
  8
WYM
 10
1620.419485885746
 20
1091.648511960284
 30
0.0
  0
VERTEX
  5
A3E
  8
WYM
 10
1618.893844182273
 20
1090.219940531713
 30
0.0
  0
VERTEX
  5
A3F
  8
WYM
 10
1617.748238769921
 20
1088.077083388855
 30
0.0
  0
VERTEX
  5
A40
  8
WYM
 10
1617.556846489612
 20
1087.36279767457
 30
0.0
  0
VERTEX
  5
A41
  8
WYM
 10
1617.554098220117
 20
1085.219940531713
 30
0.0
  0
VERTEX
  5
A42
  8
WYM
 10
1618.314170802359
 20
1083.791369103141
 30
0.0
  0
VERTEX
  5
A43
  8
WYM
 10
1619.837064236336
 20
1083.077083388855
 30
0.0
  0
VERTEX
  5
A44
  8
WYM
 10
1620.408492807765
 20
1083.077083388855
 30
0.0
  0
VERTEX
  5
A45
  8
WYM
 10
1622.314170802359
 20
1083.791369103141
 30
0.0
  0
VERTEX
  5
A46
  8
WYM
 10
1623.839812505832
 20
1085.219940531713
 30
0.0
  0
VERTEX
  5
A47
  8
WYM
 10
1624.985417918184
 20
1087.36279767457
 30
0.0
  0
SEQEND
  5
EB9
  8
WYM
  0
POLYLINE
  5
141
  8
WYM
 66
     1
 10
0.0
 20
0.0
 30
0.0
 70
     1
  0
VERTEX
  5
A48
  8
WYM
 10
1627.44878313673
 20
1077.36279767457
 30
0.0
  0
VERTEX
  5
A49
  8
WYM
 10
1628.211603988466
 20
1078.077083388855
 30
0.0
  0
VERTEX
  5
A4A
  8
WYM
 10
1627.831567697346
 20
1078.791369103141
 30
0.0
  0
VERTEX
  5
A4B
  8
WYM
 10
1627.068746845609
 20
1078.077083388855
 30
0.0
  0
SEQEND
  5
EBA
  8
WYM
  0
POLYLINE
  5
142
  8
WYM
 66
     1
 10
0.0
 20
0.0
 30
0.0
  0
VERTEX
  5
A4C
  8
WYM
 10
1637.182306737483
 20
1092.36279767457
 30
0.0
  0
VERTEX
  5
A4D
  8
WYM
 10
1643.468021023197
 20
1092.36279767457
 30
0.0
  0
VERTEX
  5
A4E
  8
WYM
 10
1638.508311352162
 20
1086.648511960284
 30
0.0
  0
VERTEX
  5
A4F
  8
WYM
 10
1640.222597066448
 20
1086.648511960284
 30
0.0
  0
VERTEX
  5
A50
  8
WYM
 10
1641.174061928997
 20
1085.934226245998
 30
0.0
  0
VERTEX
  5
A51
  8
WYM
 10
1641.554098220117
 20
1085.219940531713
 30
0.0
  0
VERTEX
  5
A52
  8
WYM
 10
1641.551349950622
 20
1083.077083388855
 30
0.0
  0
VERTEX
  5
A53
  8
WYM
 10
1641.168565390006
 20
1081.648511960284
 30
0.0
  0
VERTEX
  5
A54
  8
WYM
 10
1640.022959977654
 20
1079.505654817427
 30
0.0
  0
VERTEX
  5
A55
  8
WYM
 10
1638.497318274181
 20
1078.077083388855
 30
0.0
  0
VERTEX
  5
A56
  8
WYM
 10
1636.591640279587
 20
1077.36279767457
 30
0.0
  0
VERTEX
  5
A57
  8
WYM
 10
1634.877354565301
 20
1077.36279767457
 30
0.0
  0
VERTEX
  5
A58
  8
WYM
 10
1633.354461131324
 20
1078.077083388855
 30
0.0
  0
VERTEX
  5
A59
  8
WYM
 10
1632.974424840203
 20
1078.791369103141
 30
0.0
  0
VERTEX
  5
A5A
  8
WYM
 10
1632.78578082939
 20
1080.219940531713
 30
0.0
  0
SEQEND
  5
EBB
  8
WYM
  0
POLYLINE
  5
143
  8
WYM
 66
     1
 10
0.0
 20
0.0
 30
0.0
  0
VERTEX
  5
A5B
  8
WYM
 10
1243.379830651392
 20
1180.851149033781
 30
0.0
  0
VERTEX
  5
A5C
  8
WYM
 10
1243.379830651392
 20
1115.513561388946
 30
0.0
  0
SEQEND
  5
EBC
  8
WYM
  0
POLYLINE
  5
144
  8
WYM
 66
     1
 10
0.0
 20
0.0
 30
0.0
  0
VERTEX
  5
A5D
  8
WYM
 10
1992.679830651394
 20
1180.851149033781
 30
0.0
  0
VERTEX
  5
A5E
  8
WYM
 10
1992.679830651394
 20
1115.513561388946
 30
0.0
  0
SEQEND
  5
EBD
  8
WYM
  0
POLYLINE
  5
145
  8
WYM
 66
     1
 10
0.0
 20
0.0
 30
0.0
  0
VERTEX
  5
A5F
  8
WYM
 10
1258.379830651392
 20
1118.013561388946
 30
0.0
  0
VERTEX
  5
A60
  8
WYM
 10
1977.679830651394
 20
1118.013561388946
 30
0.0
  0
SEQEND
  5
EBE
  8
WYM
  0
POLYLINE
  5
146
  8
WYM
 66
     1
 10
0.0
 20
0.0
 30
0.0
  0
VERTEX
  5
A61
  8
WYM
 10
1258.379830651392
 20
1120.513561388946
 30
0.0
  0
VERTEX
  5
A62
  8
WYM
 10
1258.379830651392
 20
1115.513561388946
 30
0.0
  0
VERTEX
  5
A63
  8
WYM
 10
1243.379830651392
 20
1118.013561388946
 30
0.0
  0
SEQEND
  5
EBF
  8
WYM
  0
POLYLINE
  5
147
  8
WYM
 66
     1
 10
0.0
 20
0.0
 30
0.0
  0
VERTEX
  5
A64
  8
WYM
 10
1977.679830651394
 20
1115.513561388946
 30
0.0
  0
VERTEX
  5
A65
  8
WYM
 10
1977.679830651394
 20
1120.513561388946
 30
0.0
  0
VERTEX
  5
A66
  8
WYM
 10
1992.679830651394
 20
1118.013561388946
 30
0.0
  0
SEQEND
  5
EC0
  8
WYM
  0
POLYLINE
  5
148
  8
WYM
 66
     1
 10
0.0
 20
0.0
 30
0.0
  0
VERTEX
  5
A67
  8
WYM
 10
1594.305925993873
 20
1133.013561388946
 30
0.0
  0
VERTEX
  5
A68
  8
WYM
 10
1604.039449594625
 20
1148.013561388946
 30
0.0
  0
VERTEX
  5
A69
  8
WYM
 10
1596.039449594625
 20
1148.013561388946
 30
0.0
  0
SEQEND
  5
EC1
  8
WYM
  0
POLYLINE
  5
149
  8
WYM
 66
     1
 10
0.0
 20
0.0
 30
0.0
  0
VERTEX
  5
A6A
  8
WYM
 10
1609.163068851016
 20
1133.013561388946
 30
0.0
  0
VERTEX
  5
A6B
  8
WYM
 10
1613.182306737483
 20
1148.013561388946
 30
0.0
  0
VERTEX
  5
A6C
  8
WYM
 10
1604.788529098886
 20
1138.013561388946
 30
0.0
  0
VERTEX
  5
A6D
  8
WYM
 10
1613.359957670314
 20
1138.013561388946
 30
0.0
  0
SEQEND
  5
EC2
  8
WYM
  0
POLYLINE
  5
14A
  8
WYM
 66
     1
 10
0.0
 20
0.0
 30
0.0
  0
VERTEX
  5
A6E
  8
WYM
 10
1616.022959977654
 20
1135.156418531803
 30
0.0
  0
VERTEX
  5
A6F
  8
WYM
 10
1616.211603988466
 20
1133.727847103232
 30
0.0
  0
VERTEX
  5
A70
  8
WYM
 10
1617.734497422444
 20
1133.013561388946
 30
0.0
  0
VERTEX
  5
A71
  8
WYM
 10
1618.877354565301
 20
1133.013561388946
 30
0.0
  0
VERTEX
  5
A72
  8
WYM
 10
1620.783032559895
 20
1133.727847103232
 30
0.0
  0
VERTEX
  5
A73
  8
WYM
 10
1622.500066543676
 20
1135.870704246089
 30
0.0
  0
VERTEX
  5
A74
  8
WYM
 10
1624.028456516644
 20
1139.442132817518
 30
0.0
  0
VERTEX
  5
A75
  8
WYM
 10
1624.985417918184
 20
1143.013561388946
 30
0.0
  0
VERTEX
  5
A76
  8
WYM
 10
1625.179558467987
 20
1145.870704246089
 30
0.0
  0
VERTEX
  5
A77
  8
WYM
 10
1624.419485885746
 20
1147.299275674661
 30
0.0
  0
VERTEX
  5
A78
  8
WYM
 10
1622.896592451768
 20
1148.013561388946
 30
0.0
  0
VERTEX
  5
A79
  8
WYM
 10
1622.325163880339
 20
1148.013561388946
 30
0.0
  0
VERTEX
  5
A7A
  8
WYM
 10
1620.419485885746
 20
1147.299275674661
 30
0.0
  0
VERTEX
  5
A7B
  8
WYM
 10
1618.893844182273
 20
1145.870704246089
 30
0.0
  0
VERTEX
  5
A7C
  8
WYM
 10
1617.748238769921
 20
1143.727847103232
 30
0.0
  0
VERTEX
  5
A7D
  8
WYM
 10
1617.556846489612
 20
1143.013561388946
 30
0.0
  0
VERTEX
  5
A7E
  8
WYM
 10
1617.554098220117
 20
1140.870704246089
 30
0.0
  0
VERTEX
  5
A7F
  8
WYM
 10
1618.314170802359
 20
1139.442132817518
 30
0.0
  0
VERTEX
  5
A80
  8
WYM
 10
1619.837064236336
 20
1138.727847103232
 30
0.0
  0
VERTEX
  5
A81
  8
WYM
 10
1620.408492807765
 20
1138.727847103232
 30
0.0
  0
VERTEX
  5
A82
  8
WYM
 10
1622.314170802359
 20
1139.442132817518
 30
0.0
  0
VERTEX
  5
A83
  8
WYM
 10
1623.839812505832
 20
1140.870704246089
 30
0.0
  0
VERTEX
  5
A84
  8
WYM
 10
1624.985417918184
 20
1143.013561388946
 30
0.0
  0
SEQEND
  5
EC3
  8
WYM
  0
POLYLINE
  5
14B
  8
WYM
 66
     1
 10
0.0
 20
0.0
 30
0.0
 70
     1
  0
VERTEX
  5
A85
  8
WYM
 10
1627.44878313673
 20
1133.013561388946
 30
0.0
  0
VERTEX
  5
A86
  8
WYM
 10
1628.211603988466
 20
1133.727847103232
 30
0.0
  0
VERTEX
  5
A87
  8
WYM
 10
1627.831567697346
 20
1134.442132817518
 30
0.0
  0
VERTEX
  5
A88
  8
WYM
 10
1627.068746845609
 20
1133.727847103232
 30
0.0
  0
SEQEND
  5
EC4
  8
WYM
  0
POLYLINE
  5
14C
  8
WYM
 66
     1
 10
0.0
 20
0.0
 30
0.0
  0
VERTEX
  5
A89
  8
WYM
 10
1637.182306737483
 20
1148.013561388946
 30
0.0
  0
VERTEX
  5
A8A
  8
WYM
 10
1643.468021023197
 20
1148.013561388946
 30
0.0
  0
VERTEX
  5
A8B
  8
WYM
 10
1638.508311352162
 20
1142.299275674661
 30
0.0
  0
VERTEX
  5
A8C
  8
WYM
 10
1640.222597066448
 20
1142.299275674661
 30
0.0
  0
VERTEX
  5
A8D
  8
WYM
 10
1641.174061928997
 20
1141.584989960375
 30
0.0
  0
VERTEX
  5
A8E
  8
WYM
 10
1641.554098220117
 20
1140.870704246089
 30
0.0
  0
VERTEX
  5
A8F
  8
WYM
 10
1641.551349950622
 20
1138.727847103232
 30
0.0
  0
VERTEX
  5
A90
  8
WYM
 10
1641.168565390006
 20
1137.299275674661
 30
0.0
  0
VERTEX
  5
A91
  8
WYM
 10
1640.022959977654
 20
1135.156418531803
 30
0.0
  0
VERTEX
  5
A92
  8
WYM
 10
1638.497318274181
 20
1133.727847103232
 30
0.0
  0
VERTEX
  5
A93
  8
WYM
 10
1636.591640279587
 20
1133.013561388946
 30
0.0
  0
VERTEX
  5
A94
  8
WYM
 10
1634.877354565301
 20
1133.013561388946
 30
0.0
  0
VERTEX
  5
A95
  8
WYM
 10
1633.354461131324
 20
1133.727847103232
 30
0.0
  0
VERTEX
  5
A96
  8
WYM
 10
1632.974424840203
 20
1134.442132817518
 30
0.0
  0
VERTEX
  5
A97
  8
WYM
 10
1632.78578082939
 20
1135.870704246089
 30
0.0
  0
SEQEND
  5
EC5
  8
WYM
  0
POLYLINE
  5
14D
  8
WYM
 66
     1
 10
0.0
 20
0.0
 30
0.0
  0
VERTEX
  5
A98
  8
WYM
 10
184.9507222265293
 20
1838.585156120883
 30
0.0
  0
VERTEX
  5
A99
  8
WYM
 10
695.5912546514237
 20
1587.119678082997
 30
0.0
  0
SEQEND
  5
EC6
  8
WYM
  0
POLYLINE
  5
14E
  8
WYM
 66
     1
 10
0.0
 20
0.0
 30
0.0
  0
VERTEX
  5
A9A
  8
WYM
 10
363.5612380401258
 20
1766.065082458443
 30
0.0
  0
VERTEX
  5
A9B
  8
WYM
 10
350.0752197114548
 20
1761.559502097974
 30
0.0
  0
SEQEND
  5
EC7
  8
WYM
  0
POLYLINE
  5
14F
  8
WYM
 66
     1
 10
0.0
 20
0.0
 30
0.0
 70
     1
  0
VERTEX
  5
A9C
  8
WYM
 10
359.4854949195765
 20
1767.275987634068
 30
0.0
  0
VERTEX
  5
A9D
  8
WYM
 10
361.0234144028359
 20
1766.518637534567
 30
0.0
  0
VERTEX
  5
A9E
  8
WYM
 10
361.5614297320649
 20
1765.457492411686
 30
0.0
  0
VERTEX
  5
A9F
  8
WYM
 10
361.6121807350169
 20
1763.84010223226
 30
0.0
  0
VERTEX
  5
AA0
  8
WYM
 10
360.6630275839389
 20
1761.918917029455
 30
0.0
  0
VERTEX
  5
AA1
  8
WYM
 10
359.6884989313844
 20
1760.806426916363
 30
0.0
  0
VERTEX
  5
AA2
  8
WYM
 10
357.7140661248
 20
1759.390141779892
 30
0.0
  0
VERTEX
  5
AA3
  8
WYM
 10
355.7142578167391
 20
1758.782551733135
 30
0.0
  0
VERTEX
  5
AA4
  8
WYM
 10
354.2017138349556
 20
1758.731206742923
 30
0.0
  0
VERTEX
  5
AA5
  8
WYM
 10
352.6637943516962
 20
1759.488556842425
 30
0.0
  0
VERTEX
  5
AA6
  8
WYM
 10
352.1257790224672
 20
1760.549701965306
 30
0.0
  0
VERTEX
  5
AA7
  8
WYM
 10
352.0750280195152
 20
1762.167092144732
 30
0.0
  0
VERTEX
  5
AA8
  8
WYM
 10
353.0241811705937
 20
1764.088277347537
 30
0.0
  0
VERTEX
  5
AA9
  8
WYM
 10
353.9987098231477
 20
1765.200767460629
 30
0.0
  0
VERTEX
  5
AAA
  8
WYM
 10
355.9731426297326
 20
1766.617052597099
 30
0.0
  0
VERTEX
  5
AAB
  8
WYM
 10
357.972950937793
 20
1767.224642643857
 30
0.0
  0
SEQEND
  5
EC8
  8
WYM
  0
POLYLINE
  5
150
  8
WYM
 66
     1
 10
0.0
 20
0.0
 30
0.0
  0
VERTEX
  5
AAC
  8
WYM
 10
360.3026407650414
 20
1757.319196524343
 30
0.0
  0
VERTEX
  5
AAD
  8
WYM
 10
359.8407519402404
 20
1755.954256378084
 30
0.0
  0
VERTEX
  5
AAE
  8
WYM
 10
359.8661274417163
 20
1755.14556128837
 30
0.0
  0
VERTEX
  5
AAF
  8
WYM
 10
360.9167825986988
 20
1753.831966132323
 30
0.0
  0
VERTEX
  5
AB0
  8
WYM
 10
362.4547020819582
 20
1753.074616032821
 30
0.0
  0
VERTEX
  5
AB1
  8
WYM
 10
364.4798858914946
 20
1752.873510989865
 30
0.0
  0
VERTEX
  5
AB2
  8
WYM
 10
366.4796941995551
 20
1753.481101036623
 30
0.0
  0
VERTEX
  5
AB3
  8
WYM
 10
368.4541270061395
 20
1754.897386173093
 30
0.0
  0
VERTEX
  5
AB4
  8
WYM
 10
369.428655658694
 20
1756.009876286185
 30
0.0
  0
VERTEX
  5
AB5
  8
WYM
 10
370.3778088097724
 20
1757.93106148899
 30
0.0
  0
VERTEX
  5
AB6
  8
WYM
 10
370.3270578068204
 20
1759.548451668417
 30
0.0
  0
VERTEX
  5
AB7
  8
WYM
 10
369.276402649838
 20
1760.862046824464
 30
0.0
  0
VERTEX
  5
AB8
  8
WYM
 10
367.7384831665786
 20
1761.619396923966
 30
0.0
  0
VERTEX
  5
AB9
  8
WYM
 10
365.7132993570422
 20
1761.820501966922
 30
0.0
  0
VERTEX
  5
ABA
  8
WYM
 10
364.7133952030117
 20
1761.516706943543
 30
0.0
  0
VERTEX
  5
ABB
  8
WYM
 10
369.6114139672595
 20
1766.27046241929
 30
0.0
  0
VERTEX
  5
ABC
  8
WYM
 10
374.7378122447908
 20
1763.745962087617
 30
0.0
  0
SEQEND
  5
EC9
  8
WYM
  0
POLYLINE
  5
151
  8
WYM
 66
     1
 10
0.0
 20
0.0
 30
0.0
 70
     1
  0
VERTEX
  5
ABD
  8
WYM
 10
371.1695791537613
 20
1748.782965468978
 30
0.0
  0
VERTEX
  5
ABE
  8
WYM
 10
373.2201384647738
 20
1747.773165336309
 30
0.0
  0
VERTEX
  5
ABF
  8
WYM
 10
375.2453222743106
 20
1747.572060293353
 30
0.0
  0
VERTEX
  5
AC0
  8
WYM
 10
376.2452264283406
 20
1747.875855316732
 30
0.0
  0
VERTEX
  5
AC1
  8
WYM
 10
377.7323949086481
 20
1748.735895396657
 30
0.0
  0
VERTEX
  5
AC2
  8
WYM
 10
379.1941878874795
 20
1750.404630566295
 30
0.0
  0
VERTEX
  5
AC3
  8
WYM
 10
379.656076712281
 20
1751.769570712554
 30
0.0
  0
VERTEX
  5
AC4
  8
WYM
 10
379.605325709329
 20
1753.38696089198
 30
0.0
  0
VERTEX
  5
AC5
  8
WYM
 10
378.5546705523466
 20
1754.700556048028
 30
0.0
  0
VERTEX
  5
AC6
  8
WYM
 10
376.9913755676112
 20
1756.266601237243
 30
0.0
  0
VERTEX
  5
AC7
  8
WYM
 10
376.4533602383822
 20
1757.327746360123
 30
0.0
  0
VERTEX
  5
AC8
  8
WYM
 10
376.9152490631832
 20
1758.692686506382
 30
0.0
  0
VERTEX
  5
AC9
  8
WYM
 10
377.8897777157376
 20
1759.805176619474
 30
0.0
  0
VERTEX
  5
ACA
  8
WYM
 10
379.3769461960451
 20
1760.665216699399
 30
0.0
  0
VERTEX
  5
ACB
  8
WYM
 10
381.4021300055815
 20
1760.464111656443
 30
0.0
  0
VERTEX
  5
ACC
  8
WYM
 10
383.4526893165939
 20
1759.454311523774
 30
0.0
  0
VERTEX
  5
ACD
  8
WYM
 10
384.5033444735764
 20
1758.140716367726
 30
0.0
  0
VERTEX
  5
ACE
  8
WYM
 10
384.0414556487749
 20
1756.775776221467
 30
0.0
  0
VERTEX
  5
ACF
  8
WYM
 10
383.0669269962209
 20
1755.663286108375
 30
0.0
  0
VERTEX
  5
AD0
  8
WYM
 10
381.5797585159135
 20
1754.803246028451
 30
0.0
  0
VERTEX
  5
AD1
  8
WYM
 10
380.06721453413
 20
1754.751901038239
 30
0.0
  0
VERTEX
  5
AD2
  8
WYM
 10
377.5293908968401
 20
1755.205456114362
 30
0.0
  0
VERTEX
  5
AD3
  8
WYM
 10
375.5042070873037
 20
1755.406561157318
 30
0.0
  0
VERTEX
  5
AD4
  8
WYM
 10
373.5043987792428
 20
1754.79897111056
 30
0.0
  0
VERTEX
  5
AD5
  8
WYM
 10
372.0172302989354
 20
1753.938931030636
 30
0.0
  0
VERTEX
  5
AD6
  8
WYM
 10
370.5554373201039
 20
1752.270195860998
 30
0.0
  0
VERTEX
  5
AD7
  8
WYM
 10
370.0935484953029
 20
1750.905255714739
 30
0.0
  0
VERTEX
  5
AD8
  8
WYM
 10
370.1189239967789
 20
1750.096560625026
 30
0.0
  0
SEQEND
  5
ECA
  8
WYM
  0
POLYLINE
  5
152
  8
WYM
 66
     1
 10
0.0
 20
0.0
 30
0.0
  0
VERTEX
  5
AD9
  8
WYM
 10
383.9855748475898
 20
1742.471714639797
 30
0.0
  0
VERTEX
  5
ADA
  8
WYM
 10
394.2181256994099
 20
1754.152860827262
 30
0.0
  0
VERTEX
  5
ADB
  8
WYM
 10
382.2700268539984
 20
1748.889930367291
 30
0.0
  0
VERTEX
  5
ADC
  8
WYM
 10
389.9596242702955
 20
1745.103179869782
 30
0.0
  0
SEQEND
  5
ECB
  8
WYM
  0
POLYLINE
  5
153
  8
WYM
 66
     1
 10
0.0
 20
0.0
 30
0.0
 70
     1
  0
VERTEX
  5
ADD
  8
WYM
 10
390.137252780627
 20
1739.44231424179
 30
0.0
  0
VERTEX
  5
ADE
  8
WYM
 10
391.1371569346575
 20
1739.746109265169
 30
0.0
  0
VERTEX
  5
ADF
  8
WYM
 10
391.1117814331815
 20
1740.554804354882
 30
0.0
  0
VERTEX
  5
AE0
  8
WYM
 10
390.111877279151
 20
1740.251009331503
 30
0.0
  0
SEQEND
  5
ECC
  8
WYM
  0
POLYLINE
  5
154
  8
WYM
 66
     1
 10
0.0
 20
0.0
 30
0.0
  0
VERTEX
  5
AE1
  8
WYM
 10
402.54724045084
 20
1746.070184848021
 30
0.0
  0
VERTEX
  5
AE2
  8
WYM
 10
403.034504777117
 20
1746.626429904566
 30
0.0
  0
VERTEX
  5
AE3
  8
WYM
 10
404.5216732574245
 20
1747.486469984491
 30
0.0
  0
VERTEX
  5
AE4
  8
WYM
 10
405.5215774114549
 20
1747.79026500787
 30
0.0
  0
VERTEX
  5
AE5
  8
WYM
 10
407.0341213932384
 20
1747.841609998081
 30
0.0
  0
VERTEX
  5
AE6
  8
WYM
 10
409.0846807042508
 20
1746.831809865412
 30
0.0
  0
VERTEX
  5
AE7
  8
WYM
 10
409.6226960334798
 20
1745.770664742532
 30
0.0
  0
VERTEX
  5
AE8
  8
WYM
 10
409.6480715349558
 20
1744.961969652819
 30
0.0
  0
VERTEX
  5
AE9
  8
WYM
 10
409.1861827101548
 20
1743.597029506559
 30
0.0
  0
VERTEX
  5
AEA
  8
WYM
 10
408.2116540576003
 20
1742.484539393468
 30
0.0
  0
VERTEX
  5
AEB
  8
WYM
 10
406.7244855772929
 20
1741.624499313543
 30
0.0
  0
VERTEX
  5
AEC
  8
WYM
 10
404.237412942955
 20
1740.46066421024
 30
0.0
  0
VERTEX
  5
AED
  8
WYM
 10
394.2383714026523
 20
1737.422713976452
 30
0.0
  0
VERTEX
  5
AEE
  8
WYM
 10
401.415328991196
 20
1733.888413512111
 30
0.0
  0
SEQEND
  5
ECD
  8
WYM
  0
POLYLINE
  5
155
  8
WYM
 66
     1
 10
0.0
 20
0.0
 30
0.0
  0
VERTEX
  5
AEF
  8
WYM
 10
681.0299902777974
 20
1591.503692207217
 30
0.0
  0
VERTEX
  5
AF0
  8
WYM
 10
683.2389280680109
 20
1595.989290700057
 30
0.0
  0
VERTEX
  5
AF1
  8
WYM
 10
695.5912546514237
 20
1587.119678082997
 30
0.0
  0
SEQEND
  5
ECE
  8
WYM
  0
POLYLINE
  5
156
  8
WYM
 66
     1
 10
0.0
 20
0.0
 30
0.0
  0
VERTEX
  5
AF2
  8
WYM
 10
186.0551911216357
 20
1840.827955367303
 30
0.0
  0
VERTEX
  5
AF3
  8
WYM
 10
183.8462533314228
 20
1836.342356874463
 30
0.0
  0
VERTEX
  5
AF4
  8
WYM
 10
171.4939267480095
 20
1845.211969491522
 30
0.0
  0
SEQEND
  5
ECF
  8
WYM
  0
POLYLINE
  5
157
  8
WYM
 66
     1
 10
0.0
 20
0.0
 30
0.0
  0
VERTEX
  5
AF5
  8
WYM
 10
141.0243465958106
 20
1734.351583940411
 30
0.0
  0
VERTEX
  5
AF6
  8
WYM
 10
103.1879007725988
 20
1706.808102543406
 30
0.0
  0
SEQEND
  5
ED0
  8
WYM
  0
POLYLINE
  5
158
  8
WYM
 66
     1
 10
0.0
 20
0.0
 30
0.0
  0
VERTEX
  5
AF7
  8
WYM
 10
141.0243465958106
 20
1734.351583940411
 30
0.0
  0
VERTEX
  5
AF8
  8
WYM
 10
153.1514125647886
 20
1743.179622849707
 30
0.0
  0
SEQEND
  5
ED1
  8
WYM
  0
POLYLINE
  5
159
  8
WYM
 66
     1
 10
0.0
 20
0.0
 30
0.0
  0
VERTEX
  5
AF9
  8
WYM
 10
91.06083480362076
 20
1697.980063634109
 30
0.0
  0
VERTEX
  5
AFA
  8
WYM
 10
78.9337688346427
 20
1689.152024724812
 30
0.0
  0
SEQEND
  5
ED2
  8
WYM
  0
POLYLINE
  5
15A
  8
WYM
 66
     1
 10
0.0
 20
0.0
 30
0.0
  0
VERTEX
  5
AFB
  8
WYM
 10
150.4571124284944
 20
1746.961037977128
 30
0.0
  0
VERTEX
  5
AFC
  8
WYM
 10
148.1703949614243
 20
1732.927368892684
 30
0.0
  0
SEQEND
  5
ED3
  8
WYM
  0
POLYLINE
  5
15B
  8
WYM
 66
     1
 10
0.0
 20
0.0
 30
0.0
 70
     1
  0
VERTEX
  5
AFD
  8
WYM
 10
147.4888758546886
 20
1743.91677370296
 30
0.0
  0
VERTEX
  5
AFE
  8
WYM
 10
148.8748262511431
 20
1744.925692435451
 30
0.0
  0
VERTEX
  5
AFF
  8
WYM
 10
150.0644408667008
 20
1744.908184358756
 30
0.0
  0
VERTEX
  5
B00
  8
WYM
 10
151.5197031668467
 20
1744.200555717038
 30
0.0
  0
VERTEX
  5
B01
  8
WYM
 10
152.7786296860959
 20
1742.466500266134
 30
0.0
  0
VERTEX
  5
B02
  8
WYM
 10
153.3099250552723
 20
1741.086259136089
 30
0.0
  0
VERTEX
  5
B03
  8
WYM
 10
153.6448846435514
 20
1738.679591196857
 30
0.0
  0
VERTEX
  5
B04
  8
WYM
 10
153.2522130817579
 20
1736.626737578485
 30
0.0
  0
VERTEX
  5
B05
  8
WYM
 10
152.5938938353765
 20
1735.264004525135
 30
0.0
  0
VERTEX
  5
B06
  8
WYM
 10
151.2079434389216
 20
1734.255085792644
 30
0.0
  0
VERTEX
  5
B07
  8
WYM
 10
150.0183288233638
 20
1734.272593869339
 30
0.0
  0
VERTEX
  5
B08
  8
WYM
 10
148.5630665232179
 20
1734.980222511057
 30
0.0
  0
VERTEX
  5
B09
  8
WYM
 10
147.3041400039688
 20
1736.714277961961
 30
0.0
  0
VERTEX
  5
B0A
  8
WYM
 10
146.7728446347924
 20
1738.094519092006
 30
0.0
  0
VERTEX
  5
B0B
  8
WYM
 10
146.4378850465132
 20
1740.501187031238
 30
0.0
  0
VERTEX
  5
B0C
  8
WYM
 10
146.8305566083068
 20
1742.55404064961
 30
0.0
  0
SEQEND
  5
ED4
  8
WYM
  0
POLYLINE
  5
15C
  8
WYM
 66
     1
 10
0.0
 20
0.0
 30
0.0
  0
VERTEX
  5
B0D
  8
WYM
 10
153.090389414021
 20
1752.411970190528
 30
0.0
  0
VERTEX
  5
B0E
  8
WYM
 10
158.1722075343546
 20
1756.111338876329
 30
0.0
  0
VERTEX
  5
B0F
  8
WYM
 10
157.5254882181503
 20
1748.572536891166
 30
0.0
  0
VERTEX
  5
B10
  8
WYM
 10
158.9114386146048
 20
1749.581455623657
 30
0.0
  0
VERTEX
  5
B11
  8
WYM
 10
160.1010532301625
 20
1749.563947546962
 30
0.0
  0
VERTEX
  5
B12
  8
WYM
 10
160.8286843802357
 20
1749.210133226103
 30
0.0
  0
VERTEX
  5
B13
  8
WYM
 10
162.0876108994848
 20
1747.476077775199
 30
0.0
  0
VERTEX
  5
B14
  8
WYM
 10
162.6189062686608
 20
1746.095836645153
 30
0.0
  0
VERTEX
  5
B15
  8
WYM
 10
162.9538658569404
 20
1743.689168705922
 30
0.0
  0
VERTEX
  5
B16
  8
WYM
 10
162.5611942951468
 20
1741.636315087549
 30
0.0
  0
VERTEX
  5
B17
  8
WYM
 10
161.4408915832801
 20
1739.937275790036
 30
0.0
  0
VERTEX
  5
B18
  8
WYM
 10
160.0549411868255
 20
1738.928357057545
 30
0.0
  0
VERTEX
  5
B19
  8
WYM
 10
158.4033431057828
 20
1738.609558890076
 30
0.0
  0
VERTEX
  5
B1A
  8
WYM
 10
157.6757119557096
 20
1738.963373210935
 30
0.0
  0
VERTEX
  5
B1B
  8
WYM
 10
156.6824331210487
 20
1740.007308096817
 30
0.0
  0
SEQEND
  5
ED5
  8
WYM
  0
POLYLINE
  5
15D
  8
WYM
 66
     1
 10
0.0
 20
0.0
 30
0.0
  0
VERTEX
  5
B1C
  8
WYM
 10
163.8546329275559
 20
1756.713919057875
 30
0.0
  0
VERTEX
  5
B1D
  8
WYM
 10
164.5129521739373
 20
1758.076652111225
 30
0.0
  0
VERTEX
  5
B1E
  8
WYM
 10
165.1019595166276
 20
1761.155932538784
 30
0.0
  0
VERTEX
  5
B1F
  8
WYM
 10
170.6805608929776
 20
1746.663400673309
 30
0.0
  0
SEQEND
  5
ED6
  8
WYM
  0
POLYLINE
  5
15E
  8
WYM
 66
     1
 10
0.0
 20
0.0
 30
0.0
 70
     1
  0
VERTEX
  5
B20
  8
WYM
 10
177.1483294097661
 20
1751.371688091601
 30
0.0
  0
VERTEX
  5
B21
  8
WYM
 10
177.3446651906629
 20
1752.398114900787
 30
0.0
  0
VERTEX
  5
B22
  8
WYM
 10
176.6170340405897
 20
1752.751929221646
 30
0.0
  0
VERTEX
  5
B23
  8
WYM
 10
176.4206982596929
 20
1751.725502412459
 30
0.0
  0
SEQEND
  5
ED7
  8
WYM
  0
POLYLINE
  5
15F
  8
WYM
 66
     1
 10
0.0
 20
0.0
 30
0.0
 70
     1
  0
VERTEX
  5
B24
  8
WYM
 10
183.1541144610696
 20
1755.743669265729
 30
0.0
  0
VERTEX
  5
B25
  8
WYM
 10
185.0020483230091
 20
1757.088894242383
 30
0.0
  0
VERTEX
  5
B26
  8
WYM
 10
186.1223510348759
 20
1758.787933539897
 30
0.0
  0
VERTEX
  5
B27
  8
WYM
 10
186.3186868157727
 20
1759.814360349083
 30
0.0
  0
VERTEX
  5
B28
  8
WYM
 10
186.2493749120813
 20
1761.530907723292
 30
0.0
  0
VERTEX
  5
B29
  8
WYM
 10
185.4524318583167
 20
1763.60126941836
 30
0.0
  0
VERTEX
  5
B2A
  8
WYM
 10
184.4591530236557
 20
1764.645204304241
 30
0.0
  0
VERTEX
  5
B2B
  8
WYM
 10
183.0038907235098
 20
1765.352832945959
 30
0.0
  0
VERTEX
  5
B2C
  8
WYM
 10
181.3522926424671
 20
1765.034034778491
 30
0.0
  0
VERTEX
  5
B2D
  8
WYM
 10
179.2387110959394
 20
1764.378930366859
 30
0.0
  0
VERTEX
  5
B2E
  8
WYM
 10
178.0490964803816
 20
1764.396438443554
 30
0.0
  0
VERTEX
  5
B2F
  8
WYM
 10
177.0558176457207
 20
1765.440373329435
 30
0.0
  0
VERTEX
  5
B30
  8
WYM
 10
176.5245222765443
 20
1766.820614459481
 30
0.0
  0
VERTEX
  5
B31
  8
WYM
 10
176.4552103728533
 20
1768.537161833689
 30
0.0
  0
VERTEX
  5
B32
  8
WYM
 10
177.5755130847197
 20
1770.236201131203
 30
0.0
  0
VERTEX
  5
B33
  8
WYM
 10
179.4234469466592
 20
1771.581426107858
 30
0.0
  0
VERTEX
  5
B34
  8
WYM
 10
181.0750450277019
 20
1771.900224275326
 30
0.0
  0
VERTEX
  5
B35
  8
WYM
 10
182.0683238623628
 20
1770.856289389445
 30
0.0
  0
VERTEX
  5
B36
  8
WYM
 10
182.5996192315392
 20
1769.476048259399
 30
0.0
  0
VERTEX
  5
B37
  8
WYM
 10
182.6689311352307
 20
1767.759500885191
 30
0.0
  0
VERTEX
  5
B38
  8
WYM
 10
182.0106118888489
 20
1766.396767831841
 30
0.0
  0
VERTEX
  5
B39
  8
WYM
 10
180.4283257114976
 20
1764.361422290163
 30
0.0
  0
VERTEX
  5
B3A
  8
WYM
 10
179.3080229996308
 20
1762.66238299265
 30
0.0
  0
VERTEX
  5
B3B
  8
WYM
 10
178.9153514378372
 20
1760.609529374277
 30
0.0
  0
VERTEX
  5
B3C
  8
WYM
 10
178.9846633415286
 20
1758.892982000068
 30
0.0
  0
VERTEX
  5
B3D
  8
WYM
 10
179.7816063952928
 20
1756.822620305001
 30
0.0
  0
VERTEX
  5
B3E
  8
WYM
 10
180.7748852299537
 20
1755.778685419119
 30
0.0
  0
VERTEX
  5
B3F
  8
WYM
 10
181.5025163800269
 20
1755.42487109826
 30
0.0
  0
SEQEND
  5
ED8
  8
WYM
  0
POLYLINE
  5
160
  8
WYM
 66
     1
 10
0.0
 20
0.0
 30
0.0
  0
VERTEX
  5
B40
  8
WYM
 10
103.1879007725988
 20
1706.808102543406
 30
0.0
  0
VERTEX
  5
B41
  8
WYM
 10
128.8972806268325
 20
1725.523545031114
 30
0.0
  0
SEQEND
  5
ED9
  8
WYM
  0
POLYLINE
  5
161
  8
WYM
 66
     1
 10
0.0
 20
0.0
 30
0.0
  0
VERTEX
  5
B42
  8
WYM
 10
92.53217462183693
 20
1695.958885972613
 30
0.0
  0
VERTEX
  5
B43
  8
WYM
 10
89.5894949854046
 20
1700.001241295605
 30
0.0
  0
VERTEX
  5
B44
  8
WYM
 10
103.1879007725988
 20
1706.808102543406
 30
0.0
  0
SEQEND
  5
EDA
  8
WYM
  0
POLYLINE
  5
162
  8
WYM
 66
     1
 10
0.0
 20
0.0
 30
0.0
  0
VERTEX
  5
B45
  8
WYM
 10
139.5530067775944
 20
1736.372761601907
 30
0.0
  0
VERTEX
  5
B46
  8
WYM
 10
142.4956864140267
 20
1732.330406278915
 30
0.0
  0
VERTEX
  5
B47
  8
WYM
 10
128.8972806268325
 20
1725.523545031114
 30
0.0
  0
SEQEND
  5
EDB
  8
WYM
  0
POLYLINE
  5
163
  8
WYM
 66
     1
 10
0.0
 20
0.0
 30
0.0
  0
VERTEX
  5
B48
  8
WYM
 10
2007.72624721455
 20
1820.269284942133
 30
0.0
  0
VERTEX
  5
B49
  8
WYM
 10
1976.324561053404
 20
1804.811791411907
 30
0.0
  0
SEQEND
  5
EDC
  8
WYM
  0
POLYLINE
  5
164
  8
WYM
 66
     1
 10
0.0
 20
0.0
 30
0.0
  0
VERTEX
  5
B4A
  8
WYM
 10
2007.72624721455
 20
1820.269284942133
 30
0.0
  0
VERTEX
  5
B4B
  8
WYM
 10
2021.184112712183
 20
1826.893925026515
 30
0.0
  0
SEQEND
  5
EDD
  8
WYM
  0
POLYLINE
  5
165
  8
WYM
 66
     1
 10
0.0
 20
0.0
 30
0.0
  0
VERTEX
  5
B4C
  8
WYM
 10
2021.03366413435
 20
1818.460442933882
 30
0.0
  0
VERTEX
  5
B4D
  8
WYM
 10
2018.015048241904
 20
1833.693375392273
 30
0.0
  0
VERTEX
  5
B4E
  8
WYM
 10
2022.629173555379
 20
1835.964680564061
 30
0.0
  0
VERTEX
  5
B4F
  8
WYM
 10
2024.310958940463
 20
1835.996404551877
 30
0.0
  0
VERTEX
  5
B50
  8
WYM
 10
2024.967383144775
 20
1835.523394057073
 30
0.0
  0
VERTEX
  5
B51
  8
WYM
 10
2025.767550963013
 20
1834.325005826155
 30
0.0
  0
VERTEX
  5
B52
  8
WYM
 10
2026.055038190865
 20
1832.874250353927
 30
0.0
  0
VERTEX
  5
B53
  8
WYM
 10
2025.82984482833
 20
1831.17112764039
 30
0.0
  0
VERTEX
  5
B54
  8
WYM
 10
2025.460907851871
 20
1830.193382662966
 30
0.0
  0
VERTEX
  5
B55
  8
WYM
 10
2024.066609694638
 20
1828.710903202923
 30
0.0
  0
VERTEX
  5
B56
  8
WYM
 10
2019.452484381164
 20
1826.439598031134
 30
0.0
  0
SEQEND
  5
EDE
  8
WYM
  0
POLYLINE
  5
166
  8
WYM
 66
     1
 10
0.0
 20
0.0
 30
0.0
  0
VERTEX
  5
B57
  8
WYM
 10
2023.041248513866
 20
1828.206168720303
 30
0.0
  0
VERTEX
  5
B58
  8
WYM
 10
2028.211192399754
 20
1821.99358431222
 30
0.0
  0
SEQEND
  5
EDF
  8
WYM
  0
POLYLINE
  5
167
  8
WYM
 66
     1
 10
0.0
 20
0.0
 30
0.0
  0
VERTEX
  5
B59
  8
WYM
 10
2029.500058709641
 20
1835.36619877921
 30
0.0
  0
VERTEX
  5
B5A
  8
WYM
 10
2029.356315095715
 20
1836.091576515323
 30
0.0
  0
VERTEX
  5
B5B
  8
WYM
 10
2029.581508458249
 20
1837.794699228861
 30
0.0
  0
VERTEX
  5
B5C
  8
WYM
 10
2029.950445434709
 20
1838.772444206284
 30
0.0
  0
VERTEX
  5
B5D
  8
WYM
 10
2030.832063001556
 20
1840.002556425018
 30
0.0
  0
VERTEX
  5
B5E
  8
WYM
 10
2032.8827853631
 20
1841.012025390257
 30
0.0
  0
VERTEX
  5
B5F
  8
WYM
 10
2034.051890157798
 20
1840.791382136763
 30
0.0
  0
VERTEX
  5
B60
  8
WYM
 10
2034.70831436211
 20
1840.318371641959
 30
0.0
  0
VERTEX
  5
B61
  8
WYM
 10
2035.508482180348
 20
1839.119983411041
 30
0.0
  0
VERTEX
  5
B62
  8
WYM
 10
2035.795969408199
 20
1837.669227938813
 30
0.0
  0
VERTEX
  5
B63
  8
WYM
 10
2035.570776045666
 20
1835.966105225276
 30
0.0
  0
VERTEX
  5
B64
  8
WYM
 10
2034.976645706671
 20
1833.285237534315
 30
0.0
  0
VERTEX
  5
B65
  8
WYM
 10
2031.28727594207
 20
1823.507787760078
 30
0.0
  0
VERTEX
  5
B66
  8
WYM
 10
2038.464804207475
 20
1827.040929138416
 30
0.0
  0
SEQEND
  5
EE0
  8
WYM
  0
POLYLINE
  5
168
  8
WYM
 66
     1
 10
0.0
 20
0.0
 30
0.0
 70
     1
  0
VERTEX
  5
B67
  8
WYM
 10
2045.64233247288
 20
1830.574070516753
 30
0.0
  0
VERTEX
  5
B68
  8
WYM
 10
2047.036630630111
 20
1832.056549976796
 30
0.0
  0
VERTEX
  5
B69
  8
WYM
 10
2047.630760969106
 20
1834.737417667757
 30
0.0
  0
VERTEX
  5
B6A
  8
WYM
 10
2047.424723489862
 20
1838.616673589636
 30
0.0
  0
VERTEX
  5
B6B
  8
WYM
 10
2046.993492648084
 20
1840.792806797978
 30
0.0
  0
VERTEX
  5
B6C
  8
WYM
 10
2045.762093988068
 20
1844.167328237237
 30
0.0
  0
VERTEX
  5
B6D
  8
WYM
 10
2044.305501965519
 20
1845.838726962959
 30
0.0
  0
VERTEX
  5
B6E
  8
WYM
 10
2042.623716580434
 20
1845.807002975144
 30
0.0
  0
VERTEX
  5
B6F
  8
WYM
 10
2041.598355399662
 20
1845.302268492524
 30
0.0
  0
VERTEX
  5
B70
  8
WYM
 10
2040.20405724243
 20
1843.819789032481
 30
0.0
  0
VERTEX
  5
B71
  8
WYM
 10
2039.609926903436
 20
1841.13892134152
 30
0.0
  0
VERTEX
  5
B72
  8
WYM
 10
2039.81596438268
 20
1837.259665419641
 30
0.0
  0
VERTEX
  5
B73
  8
WYM
 10
2040.247195224458
 20
1835.083532211299
 30
0.0
  0
VERTEX
  5
B74
  8
WYM
 10
2041.478593884473
 20
1831.70901077204
 30
0.0
  0
VERTEX
  5
B75
  8
WYM
 10
2042.935185907023
 20
1830.037612046318
 30
0.0
  0
VERTEX
  5
B76
  8
WYM
 10
2044.616971292108
 20
1830.069336034133
 30
0.0
  0
SEQEND
  5
EE1
  8
WYM
  0
POLYLINE
  5
169
  8
WYM
 66
     1
 10
0.0
 20
0.0
 30
0.0
  0
VERTEX
  5
B77
  8
WYM
 10
1976.324561053404
 20
1804.811791411907
 30
0.0
  0
VERTEX
  5
B78
  8
WYM
 10
1994.268381716916
 20
1813.64464485775
 30
0.0
  0
SEQEND
  5
EE2
  8
WYM
  0
POLYLINE
  5
16A
  8
WYM
 66
     1
 10
0.0
 20
0.0
 30
0.0
  0
VERTEX
  5
B79
  8
WYM
 10
2006.622140533819
 20
1822.512262525072
 30
0.0
  0
VERTEX
  5
B7A
  8
WYM
 10
2008.83035389528
 20
1818.026307359194
 30
0.0
  0
VERTEX
  5
B7B
  8
WYM
 10
1994.268381716916
 20
1813.64464485775
 30
0.0
  0
SEQEND
  5
EE3
  8
WYM
  0
POLYLINE
  5
16B
  8
WYM
 66
     1
 10
0.0
 20
0.0
 30
0.0
  0
VERTEX
  5
B7C
  8
WYM
 10
1976.324561053404
 20
1784.811791411907
 30
0.0
 42
0.5555002880429479
  0
VERTEX
  5
B7D
  8
WYM
 10
1994.268381716916
 20
1813.64464485775
 30
0.0
  0
SEQEND
  5
EE4
  8
WYM
  0
POLYLINE
  5
16C
  8
WYM
 66
     1
 10
0.0
 20
0.0
 30
0.0
  0
VERTEX
  5
B7E
  8
WYM
 10
809.3439151092005
 20
1744.905266581097
 30
0.0
  0
VERTEX
  5
B7F
  8
WYM
 10
751.0425906997175
 20
1716.16582378726
 30
0.0
  0
SEQEND
  5
EE5
  8
WYM
  0
POLYLINE
  5
16D
  8
WYM
 66
     1
 10
0.0
 20
0.0
 30
0.0
  0
VERTEX
  5
B80
  8
WYM
 10
809.3439151092005
 20
1744.905266581097
 30
0.0
  0
VERTEX
  5
B81
  8
WYM
 10
822.7980668960042
 20
1751.537445687368
 30
0.0
  0
SEQEND
  5
EE6
  8
WYM
  0
POLYLINE
  5
16E
  8
WYM
 66
     1
 10
0.0
 20
0.0
 30
0.0
  0
VERTEX
  5
B82
  8
WYM
 10
827.6319752912025
 20
1745.558573513602
 30
0.0
  0
VERTEX
  5
B83
  8
WYM
 10
824.6048252910521
 20
1760.789812335989
 30
0.0
  0
VERTEX
  5
B84
  8
WYM
 10
829.2176773322419
 20
1763.063702315281
 30
0.0
  0
VERTEX
  5
B85
  8
WYM
 10
830.8994446793122
 20
1763.096368554932
 30
0.0
  0
VERTEX
  5
B86
  8
WYM
 10
831.5561337950071
 20
1762.623725910295
 30
0.0
  0
VERTEX
  5
B87
  8
WYM
 10
832.3569729107094
 20
1761.425786178878
 30
0.0
  0
VERTEX
  5
B88
  8
WYM
 10
832.6452729107236
 20
1759.975192005317
 30
0.0
  0
VERTEX
  5
B89
  8
WYM
 10
832.4210337950501
 20
1758.271943389613
 30
0.0
  0
VERTEX
  5
B8A
  8
WYM
 10
832.0526446793697
 20
1757.293991860689
 30
0.0
  0
VERTEX
  5
B8B
  8
WYM
 10
830.6591773323134
 20
1755.810731447478
 30
0.0
  0
VERTEX
  5
B8C
  8
WYM
 10
826.0463252911236
 20
1753.536841468185
 30
0.0
  0
SEQEND
  5
EE7
  8
WYM
  0
POLYLINE
  5
16F
  8
WYM
 66
     1
 10
0.0
 20
0.0
 30
0.0
  0
VERTEX
  5
B8D
  8
WYM
 10
829.6340991009379
 20
1755.305422563191
 30
0.0
  0
VERTEX
  5
B8E
  8
WYM
 10
834.807522910831
 20
1749.095735703612
 30
0.0
  0
SEQEND
  5
EE8
  8
WYM
  0
POLYLINE
  5
170
  8
WYM
 66
     1
 10
0.0
 20
0.0
 30
0.0
  0
VERTEX
  5
B8F
  8
WYM
 10
837.306157604929
 20
1753.512850703595
 30
0.0
  0
VERTEX
  5
B90
  8
WYM
 10
838.1069967206311
 20
1752.314910972178
 30
0.0
  0
VERTEX
  5
B91
  8
WYM
 10
838.763685836326
 20
1751.842268327541
 30
0.0
  0
VERTEX
  5
B92
  8
WYM
 10
840.4454531833965
 20
1751.874934567192
 30
0.0
  0
VERTEX
  5
B93
  8
WYM
 10
841.9830705304598
 20
1752.632897893623
 30
0.0
  0
VERTEX
  5
B94
  8
WYM
 10
843.3765378775158
 20
1754.116158306834
 30
0.0
  0
VERTEX
  5
B95
  8
WYM
 10
844.1133161088771
 20
1756.072061364682
 30
0.0
  0
VERTEX
  5
B96
  8
WYM
 10
844.1934052245433
 20
1758.500607067167
 30
0.0
  0
VERTEX
  5
B97
  8
WYM
 10
843.905105224529
 20
1759.951201240727
 30
0.0
  0
VERTEX
  5
B98
  8
WYM
 10
842.9601161088199
 20
1761.874438058925
 30
0.0
  0
VERTEX
  5
B99
  8
WYM
 10
841.64673787743
 20
1762.819723348199
 30
0.0
  0
VERTEX
  5
B9A
  8
WYM
 10
839.9649705303596
 20
1762.787057108548
 30
0.0
  0
VERTEX
  5
B9B
  8
WYM
 10
838.4273531832962
 20
1762.029093782117
 30
0.0
  0
VERTEX
  5
B9C
  8
WYM
 10
837.0338858362402
 20
1760.545833368906
 30
0.0
  0
VERTEX
  5
B9D
  8
WYM
 10
836.6654967205595
 20
1759.567881839982
 30
0.0
  0
VERTEX
  5
B9E
  8
WYM
 10
835.8806858361829
 20
1766.348210063149
 30
0.0
  0
VERTEX
  5
B9F
  8
WYM
 10
841.0060769930603
 20
1768.874754484585
 30
0.0
  0
SEQEND
  5
EE9
  8
WYM
  0
POLYLINE
  5
171
  8
WYM
 66
     1
 10
0.0
 20
0.0
 30
0.0
 70
     1
  0
VERTEX
  5
BA0
  8
WYM
 10
852.2338528442151
 20
1757.685986736495
 30
0.0
  0
VERTEX
  5
BA1
  8
WYM
 10
853.6273201912711
 20
1759.169247149707
 30
0.0
  0
VERTEX
  5
BA2
  8
WYM
 10
854.2199484226253
 20
1761.850447294335
 30
0.0
  0
VERTEX
  5
BA3
  8
WYM
 10
854.0117375382772
 20
1765.72958717038
 30
0.0
  0
VERTEX
  5
BA4
  8
WYM
 10
853.5792875382556
 20
1767.905478430722
 30
0.0
  0
VERTEX
  5
BA5
  8
WYM
 10
852.3459984225321
 20
1771.27930942248
 30
0.0
  0
VERTEX
  5
BA6
  8
WYM
 10
850.8884701911352
 20
1772.949891798533
 30
0.0
  0
VERTEX
  5
BA7
  8
WYM
 10
849.2067028440647
 20
1772.917225558883
 30
0.0
  0
VERTEX
  5
BA8
  8
WYM
 10
848.1816246126891
 20
1772.411916674596
 30
0.0
  0
VERTEX
  5
BA9
  8
WYM
 10
846.7881572656331
 20
1770.928656261385
 30
0.0
  0
VERTEX
  5
BAA
  8
WYM
 10
846.1955290342789
 20
1768.247456116756
 30
0.0
  0
VERTEX
  5
BAB
  8
WYM
 10
846.403739918627
 20
1764.368316240711
 30
0.0
  0
VERTEX
  5
BAC
  8
WYM
 10
846.8361899186484
 20
1762.19242498037
 30
0.0
  0
VERTEX
  5
BAD
  8
WYM
 10
848.0694790343721
 20
1758.818593988611
 30
0.0
  0
VERTEX
  5
BAE
  8
WYM
 10
849.527007265769
 20
1757.148011612558
 30
0.0
  0
VERTEX
  5
BAF
  8
WYM
 10
851.2087746128395
 20
1757.180677852208
 30
0.0
  0
SEQEND
  5
EEA
  8
WYM
  0
POLYLINE
  5
172
  8
WYM
 66
     1
 10
0.0
 20
0.0
 30
0.0
  0
VERTEX
  5
BB0
  8
WYM
 10
751.0425906997175
 20
1716.16582378726
 30
0.0
  0
VERTEX
  5
BB1
  8
WYM
 10
795.8897633223967
 20
1738.273087474827
 30
0.0
  0
SEQEND
  5
EEB
  8
WYM
  0
POLYLINE
  5
173
  8
WYM
 66
     1
 10
0.0
 20
0.0
 30
0.0
  0
VERTEX
  5
BB2
  8
WYM
 10
808.2385519248221
 20
1747.147625212231
 30
0.0
  0
VERTEX
  5
BB3
  8
WYM
 10
810.4492782935788
 20
1742.662907949963
 30
0.0
  0
VERTEX
  5
BB4
  8
WYM
 10
795.8897633223967
 20
1738.273087474827
 30
0.0
  0
SEQEND
  5
EEC
  8
WYM
  0
POLYLINE
  5
174
  8
WYM
 66
     1
 10
0.0
 20
0.0
 30
0.0
  0
VERTEX
  5
BB5
  8
WYM
 10
742.2917402022254
 20
1788.12427622987
 30
0.0
  0
VERTEX
  5
BB6
  8
WYM
 10
737.6912550071579
 20
1786.16582378726
 30
0.0
  0
SEQEND
  5
EED
  8
WYM
  0
POLYLINE
  5
175
  8
WYM
 66
     1
 10
0.0
 20
0.0
 30
0.0
  0
VERTEX
  5
BB7
  8
WYM
 10
767.5619690801166
 20
1790.730640768133
 30
0.0
  0
VERTEX
  5
BB8
  8
WYM
 10
765.3847006307146
 20
1806.106393604572
 30
0.0
  0
VERTEX
  5
BB9
  8
WYM
 10
770.1166282599268
 20
1808.120801831257
 30
0.0
  0
VERTEX
  5
BBA
  8
WYM
 10
771.7976169196356
 20
1808.060092533654
 30
0.0
  0
VERTEX
  5
BBB
  8
WYM
 10
772.4270661061862
 20
1807.551736963456
 30
0.0
  0
VERTEX
  5
BBC
  8
WYM
 10
773.1601947427084
 20
1806.31120268676
 30
0.0
  0
VERTEX
  5
BBD
  8
WYM
 10
773.3675536426515
 20
1804.846845273766
 30
0.0
  0
VERTEX
  5
BBE
  8
WYM
 10
773.0491428060154
 20
1803.158664724473
 30
0.0
  0
VERTEX
  5
BBF
  8
WYM
 10
772.6270525194077
 20
1802.202662881678
 30
0.0
  0
VERTEX
  5
BC0
  8
WYM
 10
771.1534227596419
 20
1800.799014766286
 30
0.0
  0
VERTEX
  5
BC1
  8
WYM
 10
766.4214951304298
 20
1798.784606539601
 30
0.0
  0
SEQEND
  5
EEE
  8
WYM
  0
POLYLINE
  5
176
  8
WYM
 66
     1
 10
0.0
 20
0.0
 30
0.0
  0
VERTEX
  5
BC2
  8
WYM
 10
770.1018832864836
 20
1800.351368493689
 30
0.0
  0
VERTEX
  5
BC3
  8
WYM
 10
774.9227453922242
 20
1793.86416467631
 30
0.0
  0
SEQEND
  5
EEF
  8
WYM
  0
POLYLINE
  5
177
  8
WYM
 66
     1
 10
0.0
 20
0.0
 30
0.0
  0
VERTEX
  5
BC4
  8
WYM
 10
776.9442623487339
 20
1807.145785934351
 30
0.0
  0
VERTEX
  5
BC5
  8
WYM
 10
776.8405828987622
 20
1807.877964640848
 30
0.0
  0
VERTEX
  5
BC6
  8
WYM
 10
777.1589937353986
 20
1809.566145190141
 30
0.0
  0
VERTEX
  5
BC7
  8
WYM
 10
777.581084022006
 20
1810.522147032936
 30
0.0
  0
VERTEX
  5
BC8
  8
WYM
 10
778.5289440451927
 20
1811.70197201203
 30
0.0
  0
VERTEX
  5
BC9
  8
WYM
 10
780.6320229915093
 20
1812.597264557223
 30
0.0
  0
VERTEX
  5
BCA
  8
WYM
 10
781.787241914639
 20
1812.312732123323
 30
0.0
  0
VERTEX
  5
BCB
  8
WYM
 10
782.4166911011896
 20
1811.804376553124
 30
0.0
  0
VERTEX
  5
BCC
  8
WYM
 10
783.1498197377118
 20
1810.563842276428
 30
0.0
  0
VERTEX
  5
BCD
  8
WYM
 10
783.3571786376549
 20
1809.099484863434
 30
0.0
  0
VERTEX
  5
BCE
  8
WYM
 10
783.0387678010188
 20
1807.411304314141
 30
0.0
  0
VERTEX
  5
BCF
  8
WYM
 10
782.298266677775
 20
1804.767121922053
 30
0.0
  0
VERTEX
  5
BD0
  8
WYM
 10
778.0773638116991
 20
1795.207103494099
 30
0.0
  0
VERTEX
  5
BD1
  8
WYM
 10
785.4381401238068
 20
1798.340627402276
 30
0.0
  0
SEQEND
  5
EF0
  8
WYM
  0
POLYLINE
  5
178
  8
WYM
 66
     1
 10
0.0
 20
0.0
 30
0.0
 70
     1
  0
VERTEX
  5
BD2
  8
WYM
 10
792.7989164359146
 20
1801.474151310452
 30
0.0
  0
VERTEX
  5
BD3
  8
WYM
 10
794.2725461956804
 20
1802.877799425844
 30
0.0
  0
VERTEX
  5
BD4
  8
WYM
 10
795.0130473189242
 20
1805.521981817932
 30
0.0
  0
VERTEX
  5
BD5
  8
WYM
 10
795.0204198056456
 20
1809.406698486716
 30
0.0
  0
VERTEX
  5
BD6
  8
WYM
 10
794.7093814557311
 20
1811.603234606207
 30
0.0
  0
VERTEX
  5
BD7
  8
WYM
 10
793.6652144692944
 20
1815.040305002394
 30
0.0
  0
VERTEX
  5
BD8
  8
WYM
 10
792.3026366462216
 20
1816.789194849289
 30
0.0
  0
VERTEX
  5
BD9
  8
WYM
 10
790.6216479865127
 20
1816.849904146891
 30
0.0
  0
VERTEX
  5
BDA
  8
WYM
 10
789.5701085133544
 20
1816.402257874294
 30
0.0
  0
VERTEX
  5
BDB
  8
WYM
 10
788.0964787535886
 20
1814.998609758902
 30
0.0
  0
VERTEX
  5
BDC
  8
WYM
 10
787.3559776303448
 20
1812.354427366814
 30
0.0
  0
VERTEX
  5
BDD
  8
WYM
 10
787.3486051436234
 20
1808.469710698031
 30
0.0
  0
VERTEX
  5
BDE
  8
WYM
 10
787.6596434935379
 20
1806.27317457854
 30
0.0
  0
VERTEX
  5
BDF
  8
WYM
 10
788.7038104799747
 20
1802.836104182353
 30
0.0
  0
VERTEX
  5
BE0
  8
WYM
 10
790.0663883030475
 20
1801.087214335458
 30
0.0
  0
VERTEX
  5
BE1
  8
WYM
 10
791.7473769627563
 20
1801.026505037856
 30
0.0
  0
SEQEND
  5
EF1
  8
WYM
  0
POLYLINE
  5
179
  8
WYM
 66
     1
 10
0.0
 20
0.0
 30
0.0
  0
VERTEX
  5
BE2
  8
WYM
 10
737.6912550071579
 20
1786.16582378726
 30
0.0
  0
VERTEX
  5
BE3
  8
WYM
 10
756.0931957874275
 20
1793.999633557701
 30
0.0
  0
SEQEND
  5
EF2
  8
WYM
  0
POLYLINE
  5
17A
  8
WYM
 66
     1
 10
0.0
 20
0.0
 30
0.0
  0
VERTEX
  5
BE4
  8
WYM
 10
743.2709664235306
 20
1785.824033632336
 30
0.0
  0
VERTEX
  5
BE5
  8
WYM
 10
741.3125139809201
 20
1790.424518827404
 30
0.0
  0
VERTEX
  5
BE6
  8
WYM
 10
756.0931957874275
 20
1793.999633557701
 30
0.0
  0
SEQEND
  5
EF3
  8
WYM
  0
POLYLINE
  5
17B
  8
WYM
 66
     1
 10
0.0
 20
0.0
 30
0.0
  0
VERTEX
  5
BE7
  8
WYM
 10
737.6912550071579
 20
1766.16582378726
 30
0.0
 42
0.5376552809481907
  0
VERTEX
  5
BE8
  8
WYM
 10
756.0931957874275
 20
1793.999633557701
 30
0.0
  0
SEQEND
  5
EF4
  8
WYM
  0
POLYLINE
  5
17C
  8
WYM
 66
     1
 10
0.0
 20
0.0
 30
0.0
  0
VERTEX
  5
BE9
  8
WYM
 10
66.04259069971567
 20
1193.599121151992
 30
0.0
  0
VERTEX
  5
BEA
  8
WYM
 10
66.04259069971567
 20
1064.265344472137
 30
0.0
  0
SEQEND
  5
EF5
  8
WYM
  0
POLYLINE
  5
17D
  8
WYM
 66
     1
 10
0.0
 20
0.0
 30
0.0
  0
VERTEX
  5
BEB
  8
WYM
 10
801.0425906997173
 20
1193.599121151992
 30
0.0
  0
VERTEX
  5
BEC
  8
WYM
 10
801.0425906997173
 20
1064.265344472137
 30
0.0
  0
SEQEND
  5
EF6
  8
WYM
  0
POLYLINE
  5
17E
  8
WYM
 66
     1
 10
0.0
 20
0.0
 30
0.0
  0
VERTEX
  5
BED
  8
WYM
 10
81.04259069971567
 20
1066.765344472137
 30
0.0
  0
VERTEX
  5
BEE
  8
WYM
 10
786.0425906997173
 20
1066.765344472137
 30
0.0
  0
SEQEND
  5
EF7
  8
WYM
  0
POLYLINE
  5
17F
  8
WYM
 66
     1
 10
0.0
 20
0.0
 30
0.0
  0
VERTEX
  5
BEF
  8
WYM
 10
81.04259069971567
 20
1069.265344472137
 30
0.0
  0
VERTEX
  5
BF0
  8
WYM
 10
81.04259069971567
 20
1064.265344472137
 30
0.0
  0
VERTEX
  5
BF1
  8
WYM
 10
66.04259069971567
 20
1066.765344472137
 30
0.0
  0
SEQEND
  5
EF8
  8
WYM
  0
POLYLINE
  5
180
  8
WYM
 66
     1
 10
0.0
 20
0.0
 30
0.0
  0
VERTEX
  5
BF2
  8
WYM
 10
786.0425906997173
 20
1064.265344472137
 30
0.0
  0
VERTEX
  5
BF3
  8
WYM
 10
786.0425906997173
 20
1069.265344472137
 30
0.0
  0
VERTEX
  5
BF4
  8
WYM
 10
801.0425906997173
 20
1066.765344472137
 30
0.0
  0
SEQEND
  5
EF9
  8
WYM
  0
POLYLINE
  5
181
  8
WYM
 66
     1
 10
0.0
 20
0.0
 30
0.0
  0
VERTEX
  5
BF5
  8
WYM
 10
418.3901146136268
 20
1081.765344472137
 30
0.0
  0
VERTEX
  5
BF6
  8
WYM
 10
428.1236382143793
 20
1096.765344472137
 30
0.0
  0
VERTEX
  5
BF7
  8
WYM
 10
420.1236382143793
 20
1096.765344472137
 30
0.0
  0
SEQEND
  5
EFA
  8
WYM
  0
POLYLINE
  5
182
  8
WYM
 66
     1
 10
0.0
 20
0.0
 30
0.0
  0
VERTEX
  5
BF8
  8
WYM
 10
432.6950667858077
 20
1096.765344472137
 30
0.0
  0
VERTEX
  5
BF9
  8
WYM
 10
438.9807810715222
 20
1096.765344472137
 30
0.0
  0
VERTEX
  5
BFA
  8
WYM
 10
434.021071400487
 20
1091.051058757852
 30
0.0
  0
VERTEX
  5
BFB
  8
WYM
 10
435.7353571147728
 20
1091.051058757852
 30
0.0
  0
VERTEX
  5
BFC
  8
WYM
 10
436.6868219773221
 20
1090.336773043566
 30
0.0
  0
VERTEX
  5
BFD
  8
WYM
 10
437.0668582684427
 20
1089.62248732928
 30
0.0
  0
VERTEX
  5
BFE
  8
WYM
 10
437.0641099989473
 20
1087.479630186423
 30
0.0
  0
VERTEX
  5
BFF
  8
WYM
 10
436.6813254383314
 20
1086.051058757852
 30
0.0
  0
VERTEX
  5
C00
  8
WYM
 10
435.5357200259791
 20
1083.908201614995
 30
0.0
  0
VERTEX
  5
C01
  8
WYM
 10
434.0100783225062
 20
1082.479630186423
 30
0.0
  0
VERTEX
  5
C02
  8
WYM
 10
432.1044003279123
 20
1081.765344472137
 30
0.0
  0
VERTEX
  5
C03
  8
WYM
 10
430.3901146136268
 20
1081.765344472137
 30
0.0
  0
VERTEX
  5
C04
  8
WYM
 10
428.8672211796488
 20
1082.479630186423
 30
0.0
  0
VERTEX
  5
C05
  8
WYM
 10
428.4871848885282
 20
1083.193915900709
 30
0.0
  0
VERTEX
  5
C06
  8
WYM
 10
428.2985408777156
 20
1084.62248732928
 30
0.0
  0
SEQEND
  5
EFB
  8
WYM
  0
POLYLINE
  5
183
  8
WYM
 66
     1
 10
0.0
 20
0.0
 30
0.0
  0
VERTEX
  5
C07
  8
WYM
 10
439.7271123062869
 20
1084.62248732928
 30
0.0
  0
VERTEX
  5
C08
  8
WYM
 10
439.9157563170995
 20
1083.193915900709
 30
0.0
  0
VERTEX
  5
C09
  8
WYM
 10
440.2957926082202
 20
1082.479630186423
 30
0.0
  0
VERTEX
  5
C0A
  8
WYM
 10
441.8186860421981
 20
1081.765344472137
 30
0.0
  0
VERTEX
  5
C0B
  8
WYM
 10
443.5329717564837
 20
1081.765344472137
 30
0.0
  0
VERTEX
  5
C0C
  8
WYM
 10
445.4386497510775
 20
1082.479630186423
 30
0.0
  0
VERTEX
  5
C0D
  8
WYM
 10
446.9642914545504
 20
1083.908201614995
 30
0.0
  0
VERTEX
  5
C0E
  8
WYM
 10
448.1098968669028
 20
1086.051058757852
 30
0.0
  0
VERTEX
  5
C0F
  8
WYM
 10
448.4926814275186
 20
1087.479630186423
 30
0.0
  0
VERTEX
  5
C10
  8
WYM
 10
448.4954296970141
 20
1089.62248732928
 30
0.0
  0
VERTEX
  5
C11
  8
WYM
 10
447.7353571147728
 20
1091.051058757852
 30
0.0
  0
VERTEX
  5
C12
  8
WYM
 10
446.2124636807951
 20
1091.765344472137
 30
0.0
  0
VERTEX
  5
C13
  8
WYM
 10
444.4981779665093
 20
1091.765344472137
 30
0.0
  0
VERTEX
  5
C14
  8
WYM
 10
442.5924999719157
 20
1091.051058757852
 30
0.0
  0
VERTEX
  5
C15
  8
WYM
 10
441.829679120179
 20
1090.336773043566
 30
0.0
  0
VERTEX
  5
C16
  8
WYM
 10
444.1236382143791
 20
1096.765344472137
 30
0.0
  0
VERTEX
  5
C17
  8
WYM
 10
449.8379239286648
 20
1096.765344472137
 30
0.0
  0
SEQEND
  5
EFC
  8
WYM
  0
POLYLINE
  5
184
  8
WYM
 66
     1
 10
0.0
 20
0.0
 30
0.0
  0
VERTEX
  5
C18
  8
WYM
 10
116.0425906997157
 20
1179.875781940028
 30
0.0
  0
VERTEX
  5
C19
  8
WYM
 10
116.0425906997157
 20
1099.619481668303
 30
0.0
  0
SEQEND
  5
EFD
  8
WYM
  0
POLYLINE
  5
185
  8
WYM
 66
     1
 10
0.0
 20
0.0
 30
0.0
  0
VERTEX
  5
C1A
  8
WYM
 10
751.0425906997175
 20
1178.436482808854
 30
0.0
  0
VERTEX
  5
C1B
  8
WYM
 10
751.0425906997175
 20
1099.619481668303
 30
0.0
  0
SEQEND
  5
EFE
  8
WYM
  0
POLYLINE
  5
186
  8
WYM
 66
     1
 10
0.0
 20
0.0
 30
0.0
  0
VERTEX
  5
C1C
  8
WYM
 10
131.0425906997157
 20
1102.119481668303
 30
0.0
  0
VERTEX
  5
C1D
  8
WYM
 10
736.0425906997175
 20
1102.119481668303
 30
0.0
  0
SEQEND
  5
EFF
  8
WYM
  0
POLYLINE
  5
187
  8
WYM
 66
     1
 10
0.0
 20
0.0
 30
0.0
  0
VERTEX
  5
C1E
  8
WYM
 10
131.0425906997157
 20
1104.619481668303
 30
0.0
  0
VERTEX
  5
C1F
  8
WYM
 10
131.0425906997157
 20
1099.619481668303
 30
0.0
  0
VERTEX
  5
C20
  8
WYM
 10
116.0425906997157
 20
1102.119481668303
 30
0.0
  0
SEQEND
  5
F00
  8
WYM
  0
POLYLINE
  5
188
  8
WYM
 66
     1
 10
0.0
 20
0.0
 30
0.0
  0
VERTEX
  5
C21
  8
WYM
 10
736.0425906997175
 20
1099.619481668303
 30
0.0
  0
VERTEX
  5
C22
  8
WYM
 10
736.0425906997175
 20
1104.619481668303
 30
0.0
  0
VERTEX
  5
C23
  8
WYM
 10
751.0425906997175
 20
1102.119481668303
 30
0.0
  0
SEQEND
  5
F01
  8
WYM
  0
POLYLINE
  5
189
  8
WYM
 66
     1
 10
0.0
 20
0.0
 30
0.0
  0
VERTEX
  5
C24
  8
WYM
 10
426.692318516313
 20
1129.976624525446
 30
0.0
  0
VERTEX
  5
C25
  8
WYM
 10
426.5036745055002
 20
1131.405195954017
 30
0.0
  0
VERTEX
  5
C26
  8
WYM
 10
424.9807810715224
 20
1132.119481668303
 30
0.0
  0
VERTEX
  5
C27
  8
WYM
 10
423.8379239286653
 20
1132.119481668303
 30
0.0
  0
VERTEX
  5
C28
  8
WYM
 10
421.9322459340717
 20
1131.405195954017
 30
0.0
  0
VERTEX
  5
C29
  8
WYM
 10
420.2152119502907
 20
1129.26233881116
 30
0.0
  0
VERTEX
  5
C2A
  8
WYM
 10
418.6868219773223
 20
1125.690910239731
 30
0.0
  0
VERTEX
  5
C2B
  8
WYM
 10
417.7298605757826
 20
1122.119481668303
 30
0.0
  0
VERTEX
  5
C2C
  8
WYM
 10
417.5357200259796
 20
1119.26233881116
 30
0.0
  0
VERTEX
  5
C2D
  8
WYM
 10
418.2957926082208
 20
1117.833767382588
 30
0.0
  0
VERTEX
  5
C2E
  8
WYM
 10
419.8186860421986
 20
1117.119481668303
 30
0.0
  0
VERTEX
  5
C2F
  8
WYM
 10
420.390114613627
 20
1117.119481668303
 30
0.0
  0
VERTEX
  5
C30
  8
WYM
 10
422.2957926082208
 20
1117.833767382588
 30
0.0
  0
VERTEX
  5
C31
  8
WYM
 10
423.8214343116938
 20
1119.26233881116
 30
0.0
  0
VERTEX
  5
C32
  8
WYM
 10
424.9670397240461
 20
1121.405195954017
 30
0.0
  0
VERTEX
  5
C33
  8
WYM
 10
425.1584320043542
 20
1122.119481668303
 30
0.0
  0
VERTEX
  5
C34
  8
WYM
 10
425.1611802738494
 20
1124.26233881116
 30
0.0
  0
VERTEX
  5
C35
  8
WYM
 10
424.4011076916081
 20
1125.690910239731
 30
0.0
  0
VERTEX
  5
C36
  8
WYM
 10
422.8782142576304
 20
1126.405195954017
 30
0.0
  0
VERTEX
  5
C37
  8
WYM
 10
422.3067856862017
 20
1126.405195954017
 30
0.0
  0
VERTEX
  5
C38
  8
WYM
 10
420.4011076916081
 20
1125.690910239731
 30
0.0
  0
VERTEX
  5
C39
  8
WYM
 10
418.8754659881351
 20
1124.26233881116
 30
0.0
  0
VERTEX
  5
C3A
  8
WYM
 10
417.7298605757826
 20
1122.119481668303
 30
0.0
  0
SEQEND
  5
F02
  8
WYM
  0
POLYLINE
  5
18A
  8
WYM
 66
     1
 10
0.0
 20
0.0
 30
0.0
  0
VERTEX
  5
C3B
  8
WYM
 10
432.4093525000937
 20
1132.119481668303
 30
0.0
  0
VERTEX
  5
C3C
  8
WYM
 10
438.6950667858082
 20
1132.119481668303
 30
0.0
  0
VERTEX
  5
C3D
  8
WYM
 10
433.735357114773
 20
1126.405195954017
 30
0.0
  0
VERTEX
  5
C3E
  8
WYM
 10
435.4496428290588
 20
1126.405195954017
 30
0.0
  0
VERTEX
  5
C3F
  8
WYM
 10
436.4011076916081
 20
1125.690910239731
 30
0.0
  0
VERTEX
  5
C40
  8
WYM
 10
436.7811439827287
 20
1124.976624525446
 30
0.0
  0
VERTEX
  5
C41
  8
WYM
 10
436.7783957132333
 20
1122.833767382588
 30
0.0
  0
VERTEX
  5
C42
  8
WYM
 10
436.3956111526174
 20
1121.405195954017
 30
0.0
  0
VERTEX
  5
C43
  8
WYM
 10
435.2500057402651
 20
1119.26233881116
 30
0.0
  0
VERTEX
  5
C44
  8
WYM
 10
433.7243640367922
 20
1117.833767382588
 30
0.0
  0
VERTEX
  5
C45
  8
WYM
 10
431.8186860421984
 20
1117.119481668303
 30
0.0
  0
VERTEX
  5
C46
  8
WYM
 10
430.1044003279128
 20
1117.119481668303
 30
0.0
  0
VERTEX
  5
C47
  8
WYM
 10
428.5815068939348
 20
1117.833767382588
 30
0.0
  0
VERTEX
  5
C48
  8
WYM
 10
428.2014706028142
 20
1118.548053096874
 30
0.0
  0
VERTEX
  5
C49
  8
WYM
 10
428.0128265920016
 20
1119.976624525446
 30
0.0
  0
SEQEND
  5
F03
  8
WYM
  0
POLYLINE
  5
18B
  8
WYM
 66
     1
 10
0.0
 20
0.0
 30
0.0
  0
VERTEX
  5
C4A
  8
WYM
 10
439.4413980205729
 20
1119.976624525446
 30
0.0
  0
VERTEX
  5
C4B
  8
WYM
 10
439.6300420313855
 20
1118.548053096874
 30
0.0
  0
VERTEX
  5
C4C
  8
WYM
 10
440.0100783225062
 20
1117.833767382588
 30
0.0
  0
VERTEX
  5
C4D
  8
WYM
 10
441.5329717564841
 20
1117.119481668303
 30
0.0
  0
VERTEX
  5
C4E
  8
WYM
 10
443.2472574707697
 20
1117.119481668303
 30
0.0
  0
VERTEX
  5
C4F
  8
WYM
 10
445.1529354653635
 20
1117.833767382588
 30
0.0
  0
VERTEX
  5
C50
  8
WYM
 10
446.6785771688365
 20
1119.26233881116
 30
0.0
  0
VERTEX
  5
C51
  8
WYM
 10
447.8241825811888
 20
1121.405195954017
 30
0.0
  0
VERTEX
  5
C52
  8
WYM
 10
448.2069671418046
 20
1122.833767382588
 30
0.0
  0
VERTEX
  5
C53
  8
WYM
 10
448.2097154113001
 20
1124.976624525446
 30
0.0
  0
VERTEX
  5
C54
  8
WYM
 10
447.4496428290588
 20
1126.405195954017
 30
0.0
  0
VERTEX
  5
C55
  8
WYM
 10
445.9267493950811
 20
1127.119481668303
 30
0.0
  0
VERTEX
  5
C56
  8
WYM
 10
444.2124636807953
 20
1127.119481668303
 30
0.0
  0
VERTEX
  5
C57
  8
WYM
 10
442.3067856862017
 20
1126.405195954017
 30
0.0
  0
VERTEX
  5
C58
  8
WYM
 10
441.543964834465
 20
1125.690910239731
 30
0.0
  0
VERTEX
  5
C59
  8
WYM
 10
443.8379239286651
 20
1132.119481668303
 30
0.0
  0
VERTEX
  5
C5A
  8
WYM
 10
449.5522096429509
 20
1132.119481668303
 30
0.0
  0
SEQEND
  5
F04
  8
WYM
  0
POLYLINE
  5
18C
  8
WYM
 66
     1
 10
0.0
 20
0.0
 30
0.0
  0
VERTEX
  5
C5B
  8
WYM
 10
2042.679830651394
 20
1195.851149033781
 30
0.0
  0
VERTEX
  5
C5C
  8
WYM
 10
2076.016409756392
 20
1195.851149033781
 30
0.0
  0
SEQEND
  5
F05
  8
WYM
  0
POLYLINE
  5
18D
  8
WYM
 66
     1
 10
0.0
 20
0.0
 30
0.0
  0
VERTEX
  5
C5D
  8
WYM
 10
2042.679830651394
 20
1180.851149033781
 30
0.0
  0
VERTEX
  5
C5E
  8
WYM
 10
2076.016409756392
 20
1180.851149033781
 30
0.0
  0
SEQEND
  5
F06
  8
WYM
  0
POLYLINE
  5
18E
  8
WYM
 66
     1
 10
0.0
 20
0.0
 30
0.0
  0
VERTEX
  5
C5F
  8
WYM
 10
2073.516409756392
 20
1195.851149033781
 30
0.0
  0
VERTEX
  5
C60
  8
WYM
 10
2073.516409756392
 20
1180.851149033781
 30
0.0
  0
SEQEND
  5
F07
  8
WYM
  0
POLYLINE
  5
18F
  8
WYM
 66
     1
 10
0.0
 20
0.0
 30
0.0
  0
VERTEX
  5
C61
  8
WYM
 10
2073.516409756392
 20
1210.851149033781
 30
0.0
  0
VERTEX
  5
C62
  8
WYM
 10
2073.516409756392
 20
1225.851149033781
 30
0.0
  0
SEQEND
  5
F08
  8
WYM
  0
POLYLINE
  5
190
  8
WYM
 66
     1
 10
0.0
 20
0.0
 30
0.0
  0
VERTEX
  5
C63
  8
WYM
 10
2073.516409756392
 20
1165.851149033781
 30
0.0
  0
VERTEX
  5
C64
  8
WYM
 10
2073.516409756392
 20
1150.851149033781
 30
0.0
  0
SEQEND
  5
F09
  8
WYM
  0
POLYLINE
  5
191
  8
WYM
 66
     1
 10
0.0
 20
0.0
 30
0.0
  0
VERTEX
  5
C65
  8
WYM
 10
2071.016409756392
 20
1210.851149033781
 30
0.0
  0
VERTEX
  5
C66
  8
WYM
 10
2076.016409756392
 20
1210.851149033781
 30
0.0
  0
VERTEX
  5
C67
  8
WYM
 10
2073.516409756392
 20
1195.851149033781
 30
0.0
  0
SEQEND
  5
F0A
  8
WYM
  0
POLYLINE
  5
192
  8
WYM
 66
     1
 10
0.0
 20
0.0
 30
0.0
  0
VERTEX
  5
C68
  8
WYM
 10
2076.016409756392
 20
1165.851149033781
 30
0.0
  0
VERTEX
  5
C69
  8
WYM
 10
2071.016409756392
 20
1165.851149033781
 30
0.0
  0
VERTEX
  5
C6A
  8
WYM
 10
2073.516409756392
 20
1180.851149033781
 30
0.0
  0
SEQEND
  5
F0B
  8
WYM
  0
POLYLINE
  5
193
  8
WYM
 66
     1
 10
0.0
 20
0.0
 30
0.0
  0
VERTEX
  5
C6B
  8
WYM
 10
2085.441623955491
 20
1192.994006176638
 30
0.0
  0
VERTEX
  5
C6C
  8
WYM
 10
2086.775873378656
 20
1193.708291890923
 30
0.0
  0
VERTEX
  5
C6D
  8
WYM
 10
2089.064335933866
 20
1195.851149033781
 30
0.0
  0
VERTEX
  5
C6E
  8
WYM
 10
2085.045098047398
 20
1180.851149033781
 30
0.0
  0
SEQEND
  5
F0C
  8
WYM
  0
POLYLINE
  5
194
  8
WYM
 66
     1
 10
0.0
 20
0.0
 30
0.0
  0
VERTEX
  5
C6F
  8
WYM
 10
2092.667810025773
 20
1183.708291890923
 30
0.0
  0
VERTEX
  5
C70
  8
WYM
 10
2092.856454036586
 20
1182.279720462352
 30
0.0
  0
VERTEX
  5
C71
  8
WYM
 10
2093.236490327707
 20
1181.565434748066
 30
0.0
  0
VERTEX
  5
C72
  8
WYM
 10
2094.759383761684
 20
1180.851149033781
 30
0.0
  0
VERTEX
  5
C73
  8
WYM
 10
2096.47366947597
 20
1180.851149033781
 30
0.0
  0
VERTEX
  5
C74
  8
WYM
 10
2098.379347470564
 20
1181.565434748066
 30
0.0
  0
VERTEX
  5
C75
  8
WYM
 10
2099.904989174037
 20
1182.994006176638
 30
0.0
  0
VERTEX
  5
C76
  8
WYM
 10
2101.050594586389
 20
1185.136863319495
 30
0.0
  0
VERTEX
  5
C77
  8
WYM
 10
2101.433379147005
 20
1186.565434748066
 30
0.0
  0
VERTEX
  5
C78
  8
WYM
 10
2101.4361274165
 20
1188.708291890923
 30
0.0
  0
VERTEX
  5
C79
  8
WYM
 10
2100.676054834259
 20
1190.136863319495
 30
0.0
  0
VERTEX
  5
C7A
  8
WYM
 10
2099.153161400281
 20
1190.851149033781
 30
0.0
  0
VERTEX
  5
C7B
  8
WYM
 10
2097.438875685996
 20
1190.851149033781
 30
0.0
  0
VERTEX
  5
C7C
  8
WYM
 10
2095.533197691402
 20
1190.136863319495
 30
0.0
  0
VERTEX
  5
C7D
  8
WYM
 10
2094.770376839665
 20
1189.422577605209
 30
0.0
  0
VERTEX
  5
C7E
  8
WYM
 10
2097.064335933866
 20
1195.851149033781
 30
0.0
  0
VERTEX
  5
C7F
  8
WYM
 10
2102.778621648151
 20
1195.851149033781
 30
0.0
  0
SEQEND
  5
F0D
  8
WYM
  0
POLYLINE
  5
195
  8
WYM
 66
     1
 10
0.0
 20
0.0
 30
0.0
  0
VERTEX
  5
C80
  8
WYM
 10
801.0425906997173
 20
1208.599121151992
 30
0.0
  0
VERTEX
  5
C81
  8
WYM
 10
836.5941232507507
 20
1208.599121151992
 30
0.0
  0
SEQEND
  5
F0E
  8
WYM
  0
POLYLINE
  5
196
  8
WYM
 66
     1
 10
0.0
 20
0.0
 30
0.0
  0
VERTEX
  5
C82
  8
WYM
 10
801.0425906997173
 20
1193.599121151992
 30
0.0
  0
VERTEX
  5
C83
  8
WYM
 10
836.5941232507507
 20
1193.599121151992
 30
0.0
  0
SEQEND
  5
F0F
  8
WYM
  0
POLYLINE
  5
197
  8
WYM
 66
     1
 10
0.0
 20
0.0
 30
0.0
  0
VERTEX
  5
C84
  8
WYM
 10
834.0941232507507
 20
1208.599121151992
 30
0.0
  0
VERTEX
  5
C85
  8
WYM
 10
834.0941232507507
 20
1193.599121151992
 30
0.0
  0
SEQEND
  5
F10
  8
WYM
  0
POLYLINE
  5
198
  8
WYM
 66
     1
 10
0.0
 20
0.0
 30
0.0
  0
VERTEX
  5
C86
  8
WYM
 10
834.0941232507507
 20
1223.599121151992
 30
0.0
  0
VERTEX
  5
C87
  8
WYM
 10
834.0941232507507
 20
1238.599121151992
 30
0.0
  0
SEQEND
  5
F11
  8
WYM
  0
POLYLINE
  5
199
  8
WYM
 66
     1
 10
0.0
 20
0.0
 30
0.0
  0
VERTEX
  5
C88
  8
WYM
 10
834.0941232507507
 20
1178.599121151992
 30
0.0
  0
VERTEX
  5
C89
  8
WYM
 10
834.0941232507507
 20
1163.599121151992
 30
0.0
  0
SEQEND
  5
F12
  8
WYM
  0
POLYLINE
  5
19A
  8
WYM
 66
     1
 10
0.0
 20
0.0
 30
0.0
  0
VERTEX
  5
C8A
  8
WYM
 10
831.5941232507507
 20
1223.599121151992
 30
0.0
  0
VERTEX
  5
C8B
  8
WYM
 10
836.5941232507507
 20
1223.599121151992
 30
0.0
  0
VERTEX
  5
C8C
  8
WYM
 10
834.0941232507507
 20
1208.599121151992
 30
0.0
  0
SEQEND
  5
F13
  8
WYM
  0
POLYLINE
  5
19B
  8
WYM
 66
     1
 10
0.0
 20
0.0
 30
0.0
  0
VERTEX
  5
C8D
  8
WYM
 10
836.5941232507507
 20
1178.599121151992
 30
0.0
  0
VERTEX
  5
C8E
  8
WYM
 10
831.5941232507507
 20
1178.599121151992
 30
0.0
  0
VERTEX
  5
C8F
  8
WYM
 10
834.0941232507507
 20
1193.599121151992
 30
0.0
  0
SEQEND
  5
F14
  8
WYM
  0
POLYLINE
  5
19C
  8
WYM
 66
     1
 10
0.0
 20
0.0
 30
0.0
  0
VERTEX
  5
C90
  8
WYM
 10
842.785185850312
 20
1205.741978294849
 30
0.0
  0
VERTEX
  5
C91
  8
WYM
 10
844.1194352734769
 20
1206.456264009135
 30
0.0
  0
VERTEX
  5
C92
  8
WYM
 10
846.4078978286866
 20
1208.599121151992
 30
0.0
  0
VERTEX
  5
C93
  8
WYM
 10
842.3886599422196
 20
1193.599121151992
 30
0.0
  0
SEQEND
  5
F15
  8
WYM
  0
POLYLINE
  5
19D
  8
WYM
 66
     1
 10
0.0
 20
0.0
 30
0.0
  0
VERTEX
  5
C94
  8
WYM
 10
850.0113719205942
 20
1196.456264009135
 30
0.0
  0
VERTEX
  5
C95
  8
WYM
 10
850.2000159314068
 20
1195.027692580563
 30
0.0
  0
VERTEX
  5
C96
  8
WYM
 10
850.5800522225275
 20
1194.313406866278
 30
0.0
  0
VERTEX
  5
C97
  8
WYM
 10
852.1029456565054
 20
1193.599121151992
 30
0.0
  0
VERTEX
  5
C98
  8
WYM
 10
853.817231370791
 20
1193.599121151992
 30
0.0
  0
VERTEX
  5
C99
  8
WYM
 10
855.7229093653848
 20
1194.313406866278
 30
0.0
  0
VERTEX
  5
C9A
  8
WYM
 10
857.2485510688578
 20
1195.741978294849
 30
0.0
  0
VERTEX
  5
C9B
  8
WYM
 10
858.3941564812101
 20
1197.884835437706
 30
0.0
  0
VERTEX
  5
C9C
  8
WYM
 10
858.7769410418259
 20
1199.313406866278
 30
0.0
  0
VERTEX
  5
C9D
  8
WYM
 10
858.7796893113214
 20
1201.456264009135
 30
0.0
  0
VERTEX
  5
C9E
  8
WYM
 10
858.0196167290801
 20
1202.884835437706
 30
0.0
  0
VERTEX
  5
C9F
  8
WYM
 10
856.4967232951024
 20
1203.599121151992
 30
0.0
  0
VERTEX
  5
CA0
  8
WYM
 10
854.7824375808166
 20
1203.599121151992
 30
0.0
  0
VERTEX
  5
CA1
  8
WYM
 10
852.876759586223
 20
1202.884835437706
 30
0.0
  0
VERTEX
  5
CA2
  8
WYM
 10
852.1139387344863
 20
1202.17054972342
 30
0.0
  0
VERTEX
  5
CA3
  8
WYM
 10
854.4078978286864
 20
1208.599121151992
 30
0.0
  0
VERTEX
  5
CA4
  8
WYM
 10
860.1221835429722
 20
1208.599121151992
 30
0.0
  0
SEQEND
  5
F16
  8
WYM
  0
POLYLINE
  5
19F
  8
TXT
 66
     1
 10
0.0
 20
0.0
 30
0.0
  0
VERTEX
  5
CA5
  8
TXT
 10
396.4129359009853
 20
2165.885740892265
 30
0.0
  0
VERTEX
  5
CA6
  8
TXT
 10
409.2129359009855
 20
2165.885740892265
 30
0.0
  0
VERTEX
  5
CA7
  8
TXT
 10
389.9821552826384
 20
2141.885740892265
 30
0.0
  0
VERTEX
  5
CA8
  8
TXT
 10
402.7821552826385
 20
2141.885740892265
 30
0.0
  0
SEQEND
  5
F17
  8
TXT
  0
POLYLINE
  5
1A0
  8
TXT
 66
     1
 10
0.0
 20
0.0
 30
0.0
  0
VERTEX
  5
CA9
  8
TXT
 10
411.9382041190729
 20
2152.17145517798
 30
0.0
  0
VERTEX
  5
CAA
  8
TXT
 10
428.3953469762157
 20
2152.17145517798
 30
0.0
  0
SEQEND
  5
F18
  8
TXT
  0
POLYLINE
  5
1A1
  8
TXT
 66
     1
 10
0.0
 20
0.0
 30
0.0
  0
VERTEX
  5
CAB
  8
TXT
 10
437.8532262299502
 20
2160.17145517798
 30
0.0
  0
VERTEX
  5
CAC
  8
TXT
 10
438.1594538784429
 20
2161.314312320837
 30
0.0
  0
VERTEX
  5
CAD
  8
TXT
 10
439.6861948897142
 20
2163.60002660655
 30
0.0
  0
VERTEX
  5
CAE
  8
TXT
 10
440.9067082524925
 20
2164.742883749408
 30
0.0
  0
VERTEX
  5
CAF
  8
TXT
 10
443.0415073295567
 20
2165.885740892265
 30
0.0
  0
VERTEX
  5
CB0
  8
TXT
 10
446.6986501866995
 20
2165.885740892265
 30
0.0
  0
VERTEX
  5
CB1
  8
TXT
 10
448.2209939667782
 20
2164.742883749408
 30
0.0
  0
VERTEX
  5
CB2
  8
TXT
 10
448.8290520325713
 20
2163.60002660655
 30
0.0
  0
VERTEX
  5
CB3
  8
TXT
 10
449.1308824498715
 20
2161.314312320837
 30
0.0
  0
VERTEX
  5
CB4
  8
TXT
 10
448.5184271528863
 20
2159.028598035122
 30
0.0
  0
VERTEX
  5
CB5
  8
TXT
 10
446.991686141615
 20
2156.742883749408
 30
0.0
  0
VERTEX
  5
CB6
  8
TXT
 10
444.2444317675654
 20
2153.314312320837
 30
0.0
  0
VERTEX
  5
CB7
  8
TXT
 10
432.0392981397813
 20
2141.885740892265
 30
0.0
  0
VERTEX
  5
CB8
  8
TXT
 10
444.8392981397812
 20
2141.885740892265
 30
0.0
  0
SEQEND
  5
F19
  8
TXT
  0
POLYLINE
  5
1A2
  8
TXT
 66
     1
 10
0.0
 20
0.0
 30
0.0
 70
     1
  0
VERTEX
  5
CB9
  8
TXT
 10
457.6392981397812
 20
2141.885740892265
 30
0.0
  0
VERTEX
  5
CBA
  8
TXT
 10
460.6883829311309
 20
2143.028598035122
 30
0.0
  0
VERTEX
  5
CBB
  8
TXT
 10
463.4356373051805
 20
2146.457169463693
 30
0.0
  0
VERTEX
  5
CBC
  8
TXT
 10
465.8810612619297
 20
2152.17145517798
 30
0.0
  0
VERTEX
  5
CBD
  8
TXT
 10
466.7997442074079
 20
2155.60002660655
 30
0.0
  0
VERTEX
  5
CBE
  8
TXT
 10
467.4165967355857
 20
2161.314312320837
 30
0.0
  0
VERTEX
  5
CBF
  8
TXT
 10
466.5067082524924
 20
2164.742883749408
 30
0.0
  0
VERTEX
  5
CC0
  8
TXT
 10
464.0700787581281
 20
2165.885740892265
 30
0.0
  0
VERTEX
  5
CC1
  8
TXT
 10
462.2415073295567
 20
2165.885740892265
 30
0.0
  0
VERTEX
  5
CC2
  8
TXT
 10
459.1924225382068
 20
2164.742883749408
 30
0.0
  0
VERTEX
  5
CC3
  8
TXT
 10
456.4451681641572
 20
2161.314312320837
 30
0.0
  0
VERTEX
  5
CC4
  8
TXT
 10
453.999744207408
 20
2155.60002660655
 30
0.0
  0
VERTEX
  5
CC5
  8
TXT
 10
453.0810612619298
 20
2152.17145517798
 30
0.0
  0
VERTEX
  5
CC6
  8
TXT
 10
452.464208733752
 20
2146.457169463693
 30
0.0
  0
VERTEX
  5
CC7
  8
TXT
 10
453.3740972168453
 20
2143.028598035122
 30
0.0
  0
VERTEX
  5
CC8
  8
TXT
 10
455.8107267112098
 20
2141.885740892265
 30
0.0
  0
SEQEND
  5
F1A
  8
TXT
  0
POLYLINE
  5
1A3
  8
TXT
 66
     1
 10
0.0
 20
0.0
 30
0.0
  0
VERTEX
  5
CC9
  8
TXT
 10
1584.844712953259
 20
2258.031753238719
 30
0.0
  0
VERTEX
  5
CCA
  8
TXT
 10
1597.644712953259
 20
2258.031753238719
 30
0.0
  0
VERTEX
  5
CCB
  8
TXT
 10
1578.413932334912
 20
2234.031753238719
 30
0.0
  0
VERTEX
  5
CCC
  8
TXT
 10
1591.213932334912
 20
2234.031753238719
 30
0.0
  0
SEQEND
  5
F1B
  8
TXT
  0
POLYLINE
  5
1A4
  8
TXT
 66
     1
 10
0.0
 20
0.0
 30
0.0
  0
VERTEX
  5
CCD
  8
TXT
 10
1600.369981171347
 20
2244.317467524433
 30
0.0
  0
VERTEX
  5
CCE
  8
TXT
 10
1616.827124028489
 20
2244.317467524433
 30
0.0
  0
SEQEND
  5
F1C
  8
TXT
  0
POLYLINE
  5
1A5
  8
TXT
 66
     1
 10
0.0
 20
0.0
 30
0.0
  0
VERTEX
  5
CCF
  8
TXT
 10
1626.285003282224
 20
2252.317467524433
 30
0.0
  0
VERTEX
  5
CD0
  8
TXT
 10
1626.591230930717
 20
2253.46032466729
 30
0.0
  0
VERTEX
  5
CD1
  8
TXT
 10
1628.117971941988
 20
2255.746038953004
 30
0.0
  0
VERTEX
  5
CD2
  8
TXT
 10
1629.338485304766
 20
2256.888896095861
 30
0.0
  0
VERTEX
  5
CD3
  8
TXT
 10
1631.473284381831
 20
2258.031753238719
 30
0.0
  0
VERTEX
  5
CD4
  8
TXT
 10
1635.130427238973
 20
2258.031753238719
 30
0.0
  0
VERTEX
  5
CD5
  8
TXT
 10
1636.652771019052
 20
2256.888896095861
 30
0.0
  0
VERTEX
  5
CD6
  8
TXT
 10
1637.260829084845
 20
2255.746038953004
 30
0.0
  0
VERTEX
  5
CD7
  8
TXT
 10
1637.562659502145
 20
2253.46032466729
 30
0.0
  0
VERTEX
  5
CD8
  8
TXT
 10
1636.95020420516
 20
2251.174610381576
 30
0.0
  0
VERTEX
  5
CD9
  8
TXT
 10
1635.423463193889
 20
2248.888896095861
 30
0.0
  0
VERTEX
  5
CDA
  8
TXT
 10
1632.676208819839
 20
2245.46032466729
 30
0.0
  0
VERTEX
  5
CDB
  8
TXT
 10
1620.471075192055
 20
2234.031753238719
 30
0.0
  0
VERTEX
  5
CDC
  8
TXT
 10
1633.271075192055
 20
2234.031753238719
 30
0.0
  0
SEQEND
  5
F1D
  8
TXT
  0
POLYLINE
  5
1A6
  8
TXT
 66
     1
 10
0.0
 20
0.0
 30
0.0
  0
VERTEX
  5
CDD
  8
TXT
 10
1647.899646620626
 20
2234.031753238719
 30
0.0
  0
VERTEX
  5
CDE
  8
TXT
 10
1654.330427238974
 20
2258.031753238719
 30
0.0
  0
VERTEX
  5
CDF
  8
TXT
 10
1640.900383017218
 20
2242.031753238719
 30
0.0
  0
VERTEX
  5
CE0
  8
TXT
 10
1654.614668731504
 20
2242.031753238719
 30
0.0
  0
SEQEND
  5
F1E
  8
TXT
  0
POLYLINE
  5
1A8
  8
RAMKA
 66
     1
 10
0.0
 20
0.0
 30
0.0
 70
     1
  0
VERTEX
  5
CE1
  8
RAMKA
 10
1393.913877926649
 20
368.9492479724744
 30
0.0
 42
0.4142135623730951
  0
VERTEX
  5
CE2
  8
RAMKA
 10
1376.363877926649
 20
351.3992479724742
 30
0.0
 42
0.4142135623730951
  0
VERTEX
  5
CE3
  8
RAMKA
 10
1393.913877926649
 20
333.8492479724745
 30
0.0
 42
0.4142135623730951
  0
VERTEX
  5
CE4
  8
RAMKA
 10
1411.46387792665
 20
351.3992479724742
 30
0.0
 42
0.4142135623730951
  0
SEQEND
  5
F1F
  8
RAMKA
  0
POLYLINE
  5
1A9
  8
RAMKA
 66
     1
 10
0.0
 20
0.0
 30
0.0
 70
     1
  0
VERTEX
  5
CE5
  8
RAMKA
 10
1891.091605818409
 20
929.5425023810407
 30
0.0
 42
0.4142135623730951
  0
VERTEX
  5
CE6
  8
RAMKA
 10
1873.541605818409
 20
911.9925023810405
 30
0.0
 42
0.4142135623730951
  0
VERTEX
  5
CE7
  8
RAMKA
 10
1891.091605818409
 20
894.4425023810408
 30
0.0
 42
0.4142135623730951
  0
VERTEX
  5
CE8
  8
RAMKA
 10
1908.64160581841
 20
911.9925023810405
 30
0.0
 42
0.4142135623730951
  0
SEQEND
  5
F20
  8
RAMKA
  0
POLYLINE
  5
1AA
  8
RAMKA
 66
     1
 10
0.0
 20
0.0
 30
0.0
  0
VERTEX
  5
CE9
  8
RAMKA
 10
1853.683808246771
 20
945.1686486436696
 30
0.0
  0
VERTEX
  5
CEA
  8
RAMKA
 10
1842.83171191982
 20
932.9323563566471
 30
0.0
  0
SEQEND
  5
F21
  8
RAMKA
  0
POLYLINE
  5
1AB
  8
RAMKA
 66
     1
 10
0.0
 20
0.0
 30
0.0
  0
VERTEX
  5
CEB
  8
RAMKA
 10
1928.499403390048
 20
878.8163561184114
 30
0.0
  0
VERTEX
  5
CEC
  8
RAMKA
 10
1917.647307063095
 20
866.5800638313889
 30
0.0
  0
SEQEND
  5
F22
  8
RAMKA
  0
POLYLINE
  5
1AC
  8
RAMKA
 66
     1
 10
0.0
 20
0.0
 30
0.0
  0
VERTEX
  5
CED
  8
RAMKA
 10
1928.499403390048
 20
878.8163561184114
 30
0.0
 42
0.9999999999999968
  0
VERTEX
  5
CEE
  8
RAMKA
 10
1853.683808246771
 20
945.16864864367
 30
0.0
  0
SEQEND
  5
F23
  8
RAMKA
  0
POLYLINE
  5
1AD
  8
RAMKA
 66
     1
 10
0.0
 20
0.0
 30
0.0
  0
VERTEX
  5
CEF
  8
RAMKA
 10
1817.703988646123
 20
928.9783897467145
 30
0.0
 42
0.358922949456614
  0
VERTEX
  5
CF0
  8
RAMKA
 10
1842.83171191982
 20
932.9323563566471
 30
0.0
  0
SEQEND
  5
F24
  8
RAMKA
  0
POLYLINE
  5
1AE
  8
RAMKA
 66
     1
 10
0.0
 20
0.0
 30
0.0
  0
VERTEX
  5
CF1
  8
RAMKA
 10
1917.647307063095
 20
866.5800638313889
 30
0.0
 42
0.3589229494566096
  0
VERTEX
  5
CF2
  8
RAMKA
 10
1916.723787801335
 20
841.1599253375674
 30
0.0
  0
SEQEND
  5
F25
  8
RAMKA
  0
POLYLINE
  5
1AF
  8
RAMKA
 66
     1
 10
0.0
 20
0.0
 30
0.0
  0
VERTEX
  5
CF3
  8
RAMKA
 10
1431.321675498288
 20
318.2231017098451
 30
0.0
  0
VERTEX
  5
CF4
  8
RAMKA
 10
1440.779312451574
 20
328.8870699071734
 30
0.0
  0
SEQEND
  5
F26
  8
RAMKA
  0
POLYLINE
  5
1B0
  8
RAMKA
 66
     1
 10
0.0
 20
0.0
 30
0.0
  0
VERTEX
  5
CF5
  8
RAMKA
 10
1358.803266408406
 20
386.9976321888256
 30
0.0
 42
0.4339105898336188
  0
VERTEX
  5
CF6
  8
RAMKA
 10
1360.73773166402
 20
313.9914504008365
 30
0.0
 42
0.4339105898336059
  0
VERTEX
  5
CF7
  8
RAMKA
 10
1433.452108057282
 20
320.793229640501
 30
0.0
  0
SEQEND
  5
F27
  8
RAMKA
  0
POLYLINE
  5
1B1
  8
RAMKA
 66
     1
 10
0.0
 20
0.0
 30
0.0
  0
VERTEX
  5
CF8
  8
RAMKA
 10
1356.506080355011
 20
384.5753942351033
 30
0.0
  0
VERTEX
  5
CF9
  8
RAMKA
 10
1365.963717308297
 20
395.2393624324317
 30
0.0
 42
0.3589229494566272
  0
VERTEX
  5
CFA
  8
RAMKA
 10
1366.887236570058
 20
420.6595009262529
 30
0.0
  0
SEQEND
  5
F28
  8
RAMKA
  0
POLYLINE
  5
1B2
  8
RAMKA
 66
     1
 10
0.0
 20
0.0
 30
0.0
  0
VERTEX
  5
CFB
  8
RAMKA
 10
1817.703988646123
 20
928.9783897467145
 30
0.0
 42
0.8239980052649264
  0
VERTEX
  5
CFC
  8
RAMKA
 10
1366.887236570058
 20
420.6595009262531
 30
0.0
  0
SEQEND
  5
F29
  8
RAMKA
  0
POLYLINE
  5
1B3
  8
RAMKA
 66
     1
 10
0.0
 20
0.0
 30
0.0
  0
VERTEX
  5
CFD
  8
RAMKA
 10
1465.907035725269
 20
332.8410365171061
 30
0.0
 42
0.8239980052649262
  0
VERTEX
  5
CFE
  8
RAMKA
 10
1916.723787801335
 20
841.1599253375674
 30
0.0
  0
SEQEND
  5
F2A
  8
RAMKA
  0
POLYLINE
  5
1B4
  8
RAMKA
 66
     1
 10
0.0
 20
0.0
 30
0.0
 70
     1
  0
VERTEX
  5
CFF
  8
RAMKA
 10
776.5275270185848
 20
481.6080384649134
 30
0.0
 42
0.4142135623730951
  0
VERTEX
  5
D00
  8
RAMKA
 10
760.6275270185847
 20
465.7080384649133
 30
0.0
 42
0.4142135623730951
  0
VERTEX
  5
D01
  8
RAMKA
 10
776.5275270185848
 20
449.8080384649135
 30
0.0
 42
0.4142135623730951
  0
VERTEX
  5
D02
  8
RAMKA
 10
792.4275270185849
 20
465.7080384649133
 30
0.0
 42
0.4142135623730951
  0
SEQEND
  5
F2B
  8
RAMKA
  0
POLYLINE
  5
1B5
  8
RAMKA
 66
     1
 10
0.0
 20
0.0
 30
0.0
 70
     1
  0
VERTEX
  5
D03
  8
RAMKA
 10
1206.724631285972
 20
948.6791802409338
 30
0.0
 42
0.4142135623730951
  0
VERTEX
  5
D04
  8
RAMKA
 10
1190.824631285971
 20
932.7791802409337
 30
0.0
 42
0.4142135623730951
  0
VERTEX
  5
D05
  8
RAMKA
 10
1206.724631285972
 20
916.8791802409336
 30
0.0
 42
0.4142135623730951
  0
VERTEX
  5
D06
  8
RAMKA
 10
1222.624631285972
 20
932.7791802409337
 30
0.0
 42
0.4142135623730951
  0
SEQEND
  5
F2C
  8
RAMKA
  0
POLYLINE
  5
1B6
  8
RAMKA
 66
     1
 10
0.0
 20
0.0
 30
0.0
  0
VERTEX
  5
D07
  8
RAMKA
 10
1465.907035725269
 20
332.8410365171061
 30
0.0
 42
0.3589229494566114
  0
VERTEX
  5
D08
  8
RAMKA
 10
1440.779312451574
 20
328.8870699071739
 30
0.0
  0
SEQEND
  5
F2D
  8
RAMKA
  0
POLYLINE
  5
1B7
  8
RAMKA
 66
     1
 10
0.0
 20
0.0
 30
0.0
  0
VERTEX
  5
D09
  8
RAMKA
 10
1243.501886543926
 20
898.9053925033439
 30
0.0
  0
VERTEX
  5
D0A
  8
RAMKA
 10
1234.456680318665
 20
889.0848828873462
 30
0.0
  0
SEQEND
  5
F2E
  8
RAMKA
  0
POLYLINE
  5
1B8
  8
RAMKA
 66
     1
 10
0.0
 20
0.0
 30
0.0
  0
VERTEX
  5
D0B
  8
RAMKA
 10
1240.720472178325
 20
896.1147178553787
 30
0.0
 42
0.437492944131573
  0
VERTEX
  5
D0C
  8
RAMKA
 10
1240.598419023561
 20
969.5564354988882
 30
0.0
 42
0.4374929441315755
  0
VERTEX
  5
D0D
  8
RAMKA
 10
1167.394335631793
 20
963.6519488850789
 30
0.0
  0
SEQEND
  5
F2F
  8
RAMKA
  0
POLYLINE
  5
1B9
  8
RAMKA
 66
     1
 10
0.0
 20
0.0
 30
0.0
  0
VERTEX
  5
D0E
  8
RAMKA
 10
742.5316861262318
 20
502.3725008504688
 30
0.0
 42
0.437492944131573
  0
VERTEX
  5
D0F
  8
RAMKA
 10
742.6537392809951
 20
428.9307832069593
 30
0.0
 42
0.4374929441315729
  0
VERTEX
  5
D10
  8
RAMKA
 10
815.8578226727632
 20
434.8352698207683
 30
0.0
  0
SEQEND
  5
F30
  8
RAMKA
  0
POLYLINE
  5
1BA
  8
RAMKA
 66
     1
 10
0.0
 20
0.0
 30
0.0
  0
VERTEX
  5
D11
  8
RAMKA
 10
1169.947376028018
 20
966.652967978523
 30
0.0
  0
VERTEX
  5
D12
  8
RAMKA
 10
1160.902169802756
 20
956.8324583625252
 30
0.0
  0
SEQEND
  5
F31
  8
RAMKA
  0
POLYLINE
  5
1BB
  8
RAMKA
 66
     1
 10
0.0
 20
0.0
 30
0.0
  0
VERTEX
  5
D13
  8
RAMKA
 10
813.3047822765393
 20
431.834250727324
 30
0.0
  0
VERTEX
  5
D14
  8
RAMKA
 10
822.3499885018005
 20
441.6547603433218
 30
0.0
  0
SEQEND
  5
F32
  8
RAMKA
  0
POLYLINE
  5
1BC
  8
RAMKA
 66
     1
 10
0.0
 20
0.0
 30
0.0
  0
VERTEX
  5
D15
  8
RAMKA
 10
739.7502717606303
 20
499.5818262025031
 30
0.0
  0
VERTEX
  5
D16
  8
RAMKA
 10
748.7954779858919
 20
509.4023358185008
 30
0.0
  0
SEQEND
  5
F33
  8
RAMKA
  0
POLYLINE
  5
1BD
  8
RAMKA
 66
     1
 10
0.0
 20
0.0
 30
0.0
  0
VERTEX
  5
D17
  8
RAMKA
 10
846.9657408803614
 20
445.480340673127
 30
0.0
 42
0.7959923169522123
  0
VERTEX
  5
D18
  8
RAMKA
 10
1232.663801372851
 20
864.2382349221156
 30
0.0
  0
SEQEND
  5
F34
  8
RAMKA
  0
POLYLINE
  5
1BE
  8
RAMKA
 66
     1
 10
0.0
 20
0.0
 30
0.0
  0
VERTEX
  5
D19
  8
RAMKA
 10
1136.286417424195
 20
953.00687803272
 30
0.0
 42
0.7959923169522121
  0
VERTEX
  5
D1A
  8
RAMKA
 10
750.5883569317052
 20
534.2489837837319
 30
0.0
  0
SEQEND
  5
F35
  8
RAMKA
  0
POLYLINE
  5
1BF
  8
RAMKA
 66
     1
 10
0.0
 20
0.0
 30
0.0
  0
VERTEX
  5
D1B
  8
RAMKA
 10
748.7954779858919
 20
509.4023358185012
 30
0.0
 42
0.349406763179071
  0
VERTEX
  5
D1C
  8
RAMKA
 10
750.5883569317052
 20
534.2489837837314
 30
0.0
  0
SEQEND
  5
F36
  8
RAMKA
  0
POLYLINE
  5
1C0
  8
RAMKA
 66
     1
 10
0.0
 20
0.0
 30
0.0
  0
VERTEX
  5
D1D
  8
RAMKA
 10
846.9657408803619
 20
445.4803406731265
 30
0.0
 42
0.3494067631790773
  0
VERTEX
  5
D1E
  8
RAMKA
 10
822.3499885018005
 20
441.6547603433218
 30
0.0
  0
SEQEND
  5
F37
  8
RAMKA
  0
POLYLINE
  5
1C1
  8
RAMKA
 66
     1
 10
0.0
 20
0.0
 30
0.0
  0
VERTEX
  5
D1F
  8
RAMKA
 10
1136.286417424195
 20
953.0068780327205
 30
0.0
 42
0.3494067631790871
  0
VERTEX
  5
D20
  8
RAMKA
 10
1160.902169802756
 20
956.8324583625252
 30
0.0
  0
SEQEND
  5
F38
  8
RAMKA
  0
POLYLINE
  5
1C2
  8
RAMKA
 66
     1
 10
0.0
 20
0.0
 30
0.0
  0
VERTEX
  5
D21
  8
RAMKA
 10
1234.456680318665
 20
889.0848828873462
 30
0.0
 42
0.3494067631791024
  0
VERTEX
  5
D22
  8
RAMKA
 10
1232.663801372852
 20
864.2382349221156
 30
0.0
  0
SEQEND
  5
F39
  8
RAMKA
  0
POLYLINE
  5
1C3
  8
RAMKA
 66
     1
 10
0.0
 20
0.0
 30
0.0
  0
VERTEX
  5
D23
  8
RAMKA
 10
219.360837587963
 20
106.8618107380815
 30
0.0
  0
VERTEX
  5
D24
  8
RAMKA
 10
218.1447214563773
 20
109.1475250237958
 30
0.0
  0
VERTEX
  5
D25
  8
RAMKA
 10
216.6223776762986
 20
110.2903821666531
 30
0.0
  0
VERTEX
  5
D26
  8
RAMKA
 10
213.8795205334413
 20
110.2903821666531
 30
0.0
  0
VERTEX
  5
D27
  8
RAMKA
 10
211.7447214563772
 20
109.1475250237958
 30
0.0
  0
VERTEX
  5
D28
  8
RAMKA
 10
209.3036947308206
 20
106.8618107380815
 30
0.0
  0
VERTEX
  5
D29
  8
RAMKA
 10
207.4707260710566
 20
103.4332393095104
 30
0.0
  0
VERTEX
  5
D2A
  8
RAMKA
 10
206.8582707740711
 20
101.1475250237958
 30
0.0
  0
VERTEX
  5
D2B
  8
RAMKA
 10
206.8538735428788
 20
97.71895359522466
 30
0.0
  0
VERTEX
  5
D2C
  8
RAMKA
 10
208.0699896744645
 20
95.43323930951044
 30
0.0
  0
VERTEX
  5
D2D
  8
RAMKA
 10
209.5923334545432
 20
94.2903821666531
 30
0.0
  0
VERTEX
  5
D2E
  8
RAMKA
 10
212.3351905974005
 20
94.2903821666531
 30
0.0
  0
VERTEX
  5
D2F
  8
RAMKA
 10
214.4699896744651
 20
95.43323930951044
 30
0.0
  0
VERTEX
  5
D30
  8
RAMKA
 10
216.9110164000217
 20
97.71895359522466
 30
0.0
  0
SEQEND
  5
F3A
  8
RAMKA
  0
POLYLINE
  5
1C4
  8
RAMKA
 66
     1
 10
0.0
 20
0.0
 30
0.0
  0
VERTEX
  5
D31
  8
RAMKA
 10
220.2795205334414
 20
110.2903821666531
 30
0.0
  0
VERTEX
  5
D32
  8
RAMKA
 10
215.9923334545438
 20
94.2903821666531
 30
0.0
  0
SEQEND
  5
F3B
  8
RAMKA
  0
POLYLINE
  5
1C5
  8
RAMKA
 66
     1
 10
0.0
 20
0.0
 30
0.0
  0
VERTEX
  5
D33
  8
RAMKA
 10
227.5938062477271
 20
110.2903821666531
 30
0.0
  0
VERTEX
  5
D34
  8
RAMKA
 10
223.3066191688295
 20
94.2903821666531
 30
0.0
  0
SEQEND
  5
F3C
  8
RAMKA
  0
POLYLINE
  5
1C6
  8
RAMKA
 66
     1
 10
0.0
 20
0.0
 30
0.0
  0
VERTEX
  5
D35
  8
RAMKA
 10
225.7564403567712
 20
103.4332393095104
 30
0.0
  0
VERTEX
  5
D36
  8
RAMKA
 10
227.5894090165348
 20
106.8618107380815
 30
0.0
  0
VERTEX
  5
D37
  8
RAMKA
 10
230.0304357420919
 20
109.1475250237958
 30
0.0
  0
VERTEX
  5
D38
  8
RAMKA
 10
232.1652348191556
 20
110.2903821666531
 30
0.0
  0
VERTEX
  5
D39
  8
RAMKA
 10
234.9080919620128
 20
110.2903821666531
 30
0.0
  0
SEQEND
  5
F3D
  8
RAMKA
  0
POLYLINE
  5
1C7
  8
RAMKA
 66
     1
 10
0.0
 20
0.0
 30
0.0
  0
VERTEX
  5
D3A
  8
RAMKA
 10
241.6231140728905
 20
118.2903821666531
 30
0.0
  0
VERTEX
  5
D3B
  8
RAMKA
 10
235.1923334545436
 20
94.2903821666531
 30
0.0
  0
SEQEND
  5
F3E
  8
RAMKA
  0
POLYLINE
  5
1C8
  8
RAMKA
 66
     1
 10
0.0
 20
0.0
 30
0.0
  0
VERTEX
  5
D3C
  8
RAMKA
 10
248.622377676299
 20
110.2903821666531
 30
0.0
  0
VERTEX
  5
D3D
  8
RAMKA
 10
236.4172440485145
 20
98.86181073808154
 30
0.0
  0
SEQEND
  5
F3F
  8
RAMKA
  0
POLYLINE
  5
1C9
  8
RAMKA
 66
     1
 10
0.0
 20
0.0
 30
0.0
  0
VERTEX
  5
D3E
  8
RAMKA
 10
241.2992974996282
 20
103.4332393095104
 30
0.0
  0
VERTEX
  5
D3F
  8
RAMKA
 10
245.2494763116865
 20
94.2903821666531
 30
0.0
  0
SEQEND
  5
F40
  8
RAMKA
  0
POLYLINE
  5
1CA
  8
RAMKA
 66
     1
 10
0.0
 20
0.0
 30
0.0
 70
     1
  0
VERTEX
  5
D40
  8
RAMKA
 10
251.6494763116866
 20
94.2903821666531
 30
0.0
  0
VERTEX
  5
D41
  8
RAMKA
 10
252.8699896744647
 20
95.43323930951044
 30
0.0
  0
VERTEX
  5
D42
  8
RAMKA
 10
252.2619316086721
 20
96.57609645236732
 30
0.0
  0
VERTEX
  5
D43
  8
RAMKA
 10
251.0414182458935
 20
95.43323930951044
 30
0.0
  0
SEQEND
  5
F41
  8
RAMKA
  0
POLYLINE
  5
1CB
  8
RAMKA
 66
     1
 10
0.0
 20
0.0
 30
0.0
  0
VERTEX
  5
D44
  8
RAMKA
 10
285.5088283586047
 20
118.2903821666531
 30
0.0
  0
VERTEX
  5
D45
  8
RAMKA
 10
279.0780477402577
 20
94.2903821666531
 30
0.0
  0
SEQEND
  5
F42
  8
RAMKA
  0
POLYLINE
  5
1CC
  8
RAMKA
 66
     1
 10
0.0
 20
0.0
 30
0.0
  0
VERTEX
  5
D46
  8
RAMKA
 10
282.4465518736779
 20
106.8618107380815
 30
0.0
  0
VERTEX
  5
D47
  8
RAMKA
 10
284.8875785992345
 20
109.1475250237958
 30
0.0
  0
VERTEX
  5
D48
  8
RAMKA
 10
287.0223776762987
 20
110.2903821666531
 30
0.0
  0
VERTEX
  5
D49
  8
RAMKA
 10
289.7652348191559
 20
110.2903821666531
 30
0.0
  0
VERTEX
  5
D4A
  8
RAMKA
 10
291.2875785992346
 20
109.1475250237958
 30
0.0
  0
VERTEX
  5
D4B
  8
RAMKA
 10
292.5036947308208
 20
106.8618107380815
 30
0.0
  0
VERTEX
  5
D4C
  8
RAMKA
 10
292.4992974996285
 20
103.4332393095104
 30
0.0
  0
VERTEX
  5
D4D
  8
RAMKA
 10
291.8868422026426
 20
101.1475250237958
 30
0.0
  0
VERTEX
  5
D4E
  8
RAMKA
 10
290.053873542879
 20
97.71895359522466
 30
0.0
  0
VERTEX
  5
D4F
  8
RAMKA
 10
287.612846817322
 20
95.43323930951044
 30
0.0
  0
VERTEX
  5
D50
  8
RAMKA
 10
285.4780477402583
 20
94.2903821666531
 30
0.0
  0
VERTEX
  5
D51
  8
RAMKA
 10
282.735190597401
 20
94.2903821666531
 30
0.0
  0
VERTEX
  5
D52
  8
RAMKA
 10
281.2128468173223
 20
95.43323930951044
 30
0.0
  0
VERTEX
  5
D53
  8
RAMKA
 10
279.9967306857361
 20
97.71895359522466
 30
0.0
  0
SEQEND
  5
F43
  8
RAMKA
  0
POLYLINE
  5
1CD
  8
RAMKA
 66
     1
 10
0.0
 20
0.0
 30
0.0
  0
VERTEX
  5
D54
  8
RAMKA
 10
302.8802569300333
 20
118.2903821666531
 30
0.0
  0
VERTEX
  5
D55
  8
RAMKA
 10
296.4494763116863
 20
94.2903821666531
 30
0.0
  0
SEQEND
  5
F44
  8
RAMKA
  0
POLYLINE
  5
1CE
  8
RAMKA
 66
     1
 10
0.0
 20
0.0
 30
0.0
  0
VERTEX
  5
D56
  8
RAMKA
 10
329.99820347892
 20
113.7189535952247
 30
0.0
  0
VERTEX
  5
D57
  8
RAMKA
 10
332.1330025559837
 20
114.8618107380815
 30
0.0
  0
VERTEX
  5
D58
  8
RAMKA
 10
335.7945426443193
 20
118.2903821666531
 30
0.0
  0
VERTEX
  5
D59
  8
RAMKA
 10
329.3637620259724
 20
94.2903821666531
 30
0.0
  0
SEQEND
  5
F45
  8
RAMKA
  0
POLYLINE
  5
1CF
  8
RAMKA
 66
     1
 10
0.0
 20
0.0
 30
0.0
  0
VERTEX
  5
D5A
  8
RAMKA
 10
341.5601011913714
 20
98.86181073808154
 30
0.0
  0
VERTEX
  5
D5B
  8
RAMKA
 10
341.861931608672
 20
96.57609645236732
 30
0.0
  0
VERTEX
  5
D5C
  8
RAMKA
 10
342.4699896744651
 20
95.43323930951044
 30
0.0
  0
VERTEX
  5
D5D
  8
RAMKA
 10
344.9066191688294
 20
94.2903821666531
 30
0.0
  0
VERTEX
  5
D5E
  8
RAMKA
 10
347.6494763116866
 20
94.2903821666531
 30
0.0
  0
VERTEX
  5
D5F
  8
RAMKA
 10
350.6985611030364
 20
95.43323930951044
 30
0.0
  0
VERTEX
  5
D60
  8
RAMKA
 10
353.139587828593
 20
97.71895359522466
 30
0.0
  0
VERTEX
  5
D61
  8
RAMKA
 10
354.972556488357
 20
101.1475250237958
 30
0.0
  0
VERTEX
  5
D62
  8
RAMKA
 10
355.5850117853424
 20
103.4332393095104
 30
0.0
  0
VERTEX
  5
D63
  8
RAMKA
 10
355.5894090165348
 20
106.8618107380815
 30
0.0
  0
VERTEX
  5
D64
  8
RAMKA
 10
354.373292884949
 20
109.1475250237958
 30
0.0
  0
VERTEX
  5
D65
  8
RAMKA
 10
351.9366633905847
 20
110.2903821666531
 30
0.0
  0
VERTEX
  5
D66
  8
RAMKA
 10
349.1938062477275
 20
110.2903821666531
 30
0.0
  0
VERTEX
  5
D67
  8
RAMKA
 10
346.1447214563777
 20
109.1475250237958
 30
0.0
  0
VERTEX
  5
D68
  8
RAMKA
 10
344.9242080935992
 20
108.0046678809389
 30
0.0
  0
VERTEX
  5
D69
  8
RAMKA
 10
348.5945426443195
 20
118.2903821666531
 30
0.0
  0
VERTEX
  5
D6A
  8
RAMKA
 10
357.7373997871764
 20
118.2903821666531
 30
0.0
  0
SEQEND
  5
F46
  8
RAMKA
  0
POLYLINE
  5
1D0
  8
RAMKA
 66
     1
 10
0.0
 20
0.0
 30
0.0
  0
VERTEX
  5
D6B
  8
RAMKA
 10
372.9652348191557
 20
110.2903821666531
 30
0.0
  0
VERTEX
  5
D6C
  8
RAMKA
 10
358.6209048831151
 20
94.2903821666531
 30
0.0
  0
SEQEND
  5
F47
  8
RAMKA
  0
POLYLINE
  5
1D1
  8
RAMKA
 66
     1
 10
0.0
 20
0.0
 30
0.0
  0
VERTEX
  5
D6D
  8
RAMKA
 10
362.9080919620128
 20
110.2903821666531
 30
0.0
  0
VERTEX
  5
D6E
  8
RAMKA
 10
368.6780477402581
 20
94.2903821666531
 30
0.0
  0
SEQEND
  5
F48
  8
RAMKA
  0
POLYLINE
  5
1D2
  8
RAMKA
 66
     1
 10
0.0
 20
0.0
 30
0.0
  0
VERTEX
  5
D6F
  8
RAMKA
 10
382.1124891932054
 20
113.7189535952247
 30
0.0
  0
VERTEX
  5
D70
  8
RAMKA
 10
384.2472882702696
 20
114.8618107380815
 30
0.0
  0
VERTEX
  5
D71
  8
RAMKA
 10
387.9088283586052
 20
118.2903821666531
 30
0.0
  0
VERTEX
  5
D72
  8
RAMKA
 10
381.4780477402583
 20
94.2903821666531
 30
0.0
  0
SEQEND
  5
F49
  8
RAMKA
  0
POLYLINE
  5
1D3
  8
RAMKA
 66
     1
 10
0.0
 20
0.0
 30
0.0
 70
     1
  0
VERTEX
  5
D73
  8
RAMKA
 10
399.763762025972
 20
94.2903821666531
 30
0.0
  0
VERTEX
  5
D74
  8
RAMKA
 10
402.8128468173218
 20
95.43323930951044
 30
0.0
  0
VERTEX
  5
D75
  8
RAMKA
 10
405.5601011913714
 20
98.86181073808154
 30
0.0
  0
VERTEX
  5
D76
  8
RAMKA
 10
408.0055251481208
 20
104.5760964523673
 30
0.0
  0
VERTEX
  5
D77
  8
RAMKA
 10
408.9242080935992
 20
108.0046678809389
 30
0.0
  0
VERTEX
  5
D78
  8
RAMKA
 10
409.5410606217765
 20
113.7189535952247
 30
0.0
  0
VERTEX
  5
D79
  8
RAMKA
 10
408.6311721386837
 20
117.1475250237958
 30
0.0
  0
VERTEX
  5
D7A
  8
RAMKA
 10
406.194542644319
 20
118.2903821666531
 30
0.0
  0
VERTEX
  5
D7B
  8
RAMKA
 10
404.3659712157478
 20
118.2903821666531
 30
0.0
  0
VERTEX
  5
D7C
  8
RAMKA
 10
401.316886424398
 20
117.1475250237958
 30
0.0
  0
VERTEX
  5
D7D
  8
RAMKA
 10
398.5696320503484
 20
113.7189535952247
 30
0.0
  0
VERTEX
  5
D7E
  8
RAMKA
 10
396.124208093599
 20
108.0046678809389
 30
0.0
  0
VERTEX
  5
D7F
  8
RAMKA
 10
395.2055251481206
 20
104.5760964523673
 30
0.0
  0
VERTEX
  5
D80
  8
RAMKA
 10
394.5886726199433
 20
98.86181073808154
 30
0.0
  0
VERTEX
  5
D81
  8
RAMKA
 10
395.4985611030361
 20
95.43323930951044
 30
0.0
  0
VERTEX
  5
D82
  8
RAMKA
 10
397.9351905974008
 20
94.2903821666531
 30
0.0
  0
SEQEND
  5
F4A
  8
RAMKA
  0
POLYLINE
  5
1D4
  8
RAMKA
 66
     1
 10
0.0
 20
0.0
 30
0.0
 70
     1
  0
VERTEX
  5
D83
  8
RAMKA
 10
418.0494763116867
 20
94.2903821666531
 30
0.0
  0
VERTEX
  5
D84
  8
RAMKA
 10
421.0985611030364
 20
95.43323930951044
 30
0.0
  0
VERTEX
  5
D85
  8
RAMKA
 10
423.845815477086
 20
98.86181073808154
 30
0.0
  0
VERTEX
  5
D86
  8
RAMKA
 10
426.291239433835
 20
104.5760964523673
 30
0.0
  0
VERTEX
  5
D87
  8
RAMKA
 10
427.209922379313
 20
108.0046678809389
 30
0.0
  0
VERTEX
  5
D88
  8
RAMKA
 10
427.8267749074912
 20
113.7189535952247
 30
0.0
  0
VERTEX
  5
D89
  8
RAMKA
 10
426.9168864243975
 20
117.1475250237958
 30
0.0
  0
VERTEX
  5
D8A
  8
RAMKA
 10
424.4802569300336
 20
118.2903821666531
 30
0.0
  0
VERTEX
  5
D8B
  8
RAMKA
 10
422.651685501462
 20
118.2903821666531
 30
0.0
  0
VERTEX
  5
D8C
  8
RAMKA
 10
419.6026007101118
 20
117.1475250237958
 30
0.0
  0
VERTEX
  5
D8D
  8
RAMKA
 10
416.8553463360622
 20
113.7189535952247
 30
0.0
  0
VERTEX
  5
D8E
  8
RAMKA
 10
414.4099223793132
 20
108.0046678809389
 30
0.0
  0
VERTEX
  5
D8F
  8
RAMKA
 10
413.4912394338353
 20
104.5760964523673
 30
0.0
  0
VERTEX
  5
D90
  8
RAMKA
 10
412.874386905657
 20
98.86181073808154
 30
0.0
  0
VERTEX
  5
D91
  8
RAMKA
 10
413.7842753887508
 20
95.43323930951044
 30
0.0
  0
VERTEX
  5
D92
  8
RAMKA
 10
416.2209048831151
 20
94.2903821666531
 30
0.0
  0
SEQEND
  5
F4B
  8
RAMKA
  0
POLYLINE
  5
1D5
  8
RAMKA
 66
     1
 10
0.0
 20
0.0
 30
0.0
 70
     1
  0
VERTEX
  5
D93
  8
RAMKA
 10
436.3351905974005
 20
94.2903821666531
 30
0.0
  0
VERTEX
  5
D94
  8
RAMKA
 10
439.3842753887502
 20
95.43323930951044
 30
0.0
  0
VERTEX
  5
D95
  8
RAMKA
 10
442.1315297627998
 20
98.86181073808154
 30
0.0
  0
VERTEX
  5
D96
  8
RAMKA
 10
444.5769537195492
 20
104.5760964523673
 30
0.0
  0
VERTEX
  5
D97
  8
RAMKA
 10
445.4956366650276
 20
108.0046678809389
 30
0.0
  0
VERTEX
  5
D98
  8
RAMKA
 10
446.112489193205
 20
113.7189535952247
 30
0.0
  0
VERTEX
  5
D99
  8
RAMKA
 10
445.2026007101122
 20
117.1475250237958
 30
0.0
  0
VERTEX
  5
D9A
  8
RAMKA
 10
442.7659712157474
 20
118.2903821666531
 30
0.0
  0
VERTEX
  5
D9B
  8
RAMKA
 10
440.9373997871762
 20
118.2903821666531
 30
0.0
  0
VERTEX
  5
D9C
  8
RAMKA
 10
437.8883149958265
 20
117.1475250237958
 30
0.0
  0
VERTEX
  5
D9D
  8
RAMKA
 10
435.1410606217769
 20
113.7189535952247
 30
0.0
  0
VERTEX
  5
D9E
  8
RAMKA
 10
432.6956366650275
 20
108.0046678809389
 30
0.0
  0
VERTEX
  5
D9F
  8
RAMKA
 10
431.7769537195491
 20
104.5760964523673
 30
0.0
  0
VERTEX
  5
DA0
  8
RAMKA
 10
431.1601011913717
 20
98.86181073808154
 30
0.0
  0
VERTEX
  5
DA1
  8
RAMKA
 10
432.0699896744645
 20
95.43323930951044
 30
0.0
  0
VERTEX
  5
DA2
  8
RAMKA
 10
434.5066191688293
 20
94.2903821666531
 30
0.0
  0
SEQEND
  5
F4C
  8
RAMKA
  0
POLYLINE
  5
1D6
  8
RAMKA
 66
     1
 10
0.0
 20
0.0
 30
0.0
  0
VERTEX
  5
DA3
  8
RAMKA
 10
461.6509491048701
 20
110.2903821666531
 30
0.0
  0
VERTEX
  5
DA4
  8
RAMKA
 10
447.3066191688295
 20
94.2903821666531
 30
0.0
  0
SEQEND
  5
F4D
  8
RAMKA
  0
POLYLINE
  5
1D7
  8
RAMKA
 66
     1
 10
0.0
 20
0.0
 30
0.0
  0
VERTEX
  5
DA5
  8
RAMKA
 10
451.5938062477271
 20
110.2903821666531
 30
0.0
  0
VERTEX
  5
DA6
  8
RAMKA
 10
457.3637620259719
 20
94.2903821666531
 30
0.0
  0
SEQEND
  5
F4E
  8
RAMKA
  0
POLYLINE
  5
1D8
  8
RAMKA
 66
     1
 10
0.0
 20
0.0
 30
0.0
  0
VERTEX
  5
DA7
  8
RAMKA
 10
468.6634044018556
 20
112.5760964523673
 30
0.0
  0
VERTEX
  5
DA8
  8
RAMKA
 10
468.9696320503481
 20
113.7189535952247
 30
0.0
  0
VERTEX
  5
DA9
  8
RAMKA
 10
470.4963730616191
 20
116.0046678809389
 30
0.0
  0
VERTEX
  5
DAA
  8
RAMKA
 10
471.7168864243977
 20
117.1475250237958
 30
0.0
  0
VERTEX
  5
DAB
  8
RAMKA
 10
473.8516855014618
 20
118.2903821666531
 30
0.0
  0
VERTEX
  5
DAC
  8
RAMKA
 10
477.5088283586047
 20
118.2903821666531
 30
0.0
  0
VERTEX
  5
DAD
  8
RAMKA
 10
479.0311721386834
 20
117.1475250237958
 30
0.0
  0
VERTEX
  5
DAE
  8
RAMKA
 10
479.6392302044765
 20
116.0046678809389
 30
0.0
  0
VERTEX
  5
DAF
  8
RAMKA
 10
479.9410606217766
 20
113.7189535952247
 30
0.0
  0
VERTEX
  5
DB0
  8
RAMKA
 10
479.3286053247912
 20
111.4332393095104
 30
0.0
  0
VERTEX
  5
DB1
  8
RAMKA
 10
477.8018643135201
 20
109.1475250237958
 30
0.0
  0
VERTEX
  5
DB2
  8
RAMKA
 10
475.0546099394705
 20
105.7189535952247
 30
0.0
  0
VERTEX
  5
DB3
  8
RAMKA
 10
462.8494763116864
 20
94.2903821666531
 30
0.0
  0
VERTEX
  5
DB4
  8
RAMKA
 10
475.6494763116862
 20
94.2903821666531
 30
0.0
  0
SEQEND
  5
F4F
  8
RAMKA
  0
POLYLINE
  5
1D9
  8
RAMKA
 66
     1
 10
0.0
 20
0.0
 30
0.0
 70
     1
  0
VERTEX
  5
DB5
  8
RAMKA
 10
488.4494763116863
 20
94.2903821666531
 30
0.0
  0
VERTEX
  5
DB6
  8
RAMKA
 10
491.4985611030361
 20
95.43323930951044
 30
0.0
  0
VERTEX
  5
DB7
  8
RAMKA
 10
494.2458154770857
 20
98.86181073808154
 30
0.0
  0
VERTEX
  5
DB8
  8
RAMKA
 10
496.6912394338351
 20
104.5760964523673
 30
0.0
  0
VERTEX
  5
DB9
  8
RAMKA
 10
497.609922379313
 20
108.0046678809389
 30
0.0
  0
VERTEX
  5
DBA
  8
RAMKA
 10
498.2267749074908
 20
113.7189535952247
 30
0.0
  0
VERTEX
  5
DBB
  8
RAMKA
 10
497.3168864243976
 20
117.1475250237958
 30
0.0
  0
VERTEX
  5
DBC
  8
RAMKA
 10
494.8802569300333
 20
118.2903821666531
 30
0.0
  0
VERTEX
  5
DBD
  8
RAMKA
 10
493.0516855014621
 20
118.2903821666531
 30
0.0
  0
VERTEX
  5
DBE
  8
RAMKA
 10
490.0026007101119
 20
117.1475250237958
 30
0.0
  0
VERTEX
  5
DBF
  8
RAMKA
 10
487.2553463360623
 20
113.7189535952247
 30
0.0
  0
VERTEX
  5
DC0
  8
RAMKA
 10
484.8099223793133
 20
108.0046678809389
 30
0.0
  0
VERTEX
  5
DC1
  8
RAMKA
 10
483.8912394338349
 20
104.5760964523673
 30
0.0
  0
VERTEX
  5
DC2
  8
RAMKA
 10
483.2743869056571
 20
98.86181073808154
 30
0.0
  0
VERTEX
  5
DC3
  8
RAMKA
 10
484.1842753887504
 20
95.43323930951044
 30
0.0
  0
VERTEX
  5
DC4
  8
RAMKA
 10
486.6209048831151
 20
94.2903821666531
 30
0.0
  0
SEQEND
  5
F50
  8
RAMKA
  0
POLYLINE
  5
1DA
  8
RAMKA
 66
     1
 10
0.0
 20
0.0
 30
0.0
 70
     1
  0
VERTEX
  5
DC5
  8
RAMKA
 10
506.7351905974006
 20
94.2903821666531
 30
0.0
  0
VERTEX
  5
DC6
  8
RAMKA
 10
509.7842753887503
 20
95.43323930951044
 30
0.0
  0
VERTEX
  5
DC7
  8
RAMKA
 10
512.5315297627999
 20
98.86181073808154
 30
0.0
  0
VERTEX
  5
DC8
  8
RAMKA
 10
514.9769537195493
 20
104.5760964523673
 30
0.0
  0
VERTEX
  5
DC9
  8
RAMKA
 10
515.8956366650273
 20
108.0046678809389
 30
0.0
  0
VERTEX
  5
DCA
  8
RAMKA
 10
516.512489193205
 20
113.7189535952247
 30
0.0
  0
VERTEX
  5
DCB
  8
RAMKA
 10
515.6026007101118
 20
117.1475250237958
 30
0.0
  0
VERTEX
  5
DCC
  8
RAMKA
 10
513.1659712157475
 20
118.2903821666531
 30
0.0
  0
VERTEX
  5
DCD
  8
RAMKA
 10
511.3373997871759
 20
118.2903821666531
 30
0.0
  0
VERTEX
  5
DCE
  8
RAMKA
 10
508.2883149958261
 20
117.1475250237958
 30
0.0
  0
VERTEX
  5
DCF
  8
RAMKA
 10
505.5410606217765
 20
113.7189535952247
 30
0.0
  0
VERTEX
  5
DD0
  8
RAMKA
 10
503.0956366650271
 20
108.0046678809389
 30
0.0
  0
VERTEX
  5
DD1
  8
RAMKA
 10
502.1769537195491
 20
104.5760964523673
 30
0.0
  0
VERTEX
  5
DD2
  8
RAMKA
 10
501.5601011913714
 20
98.86181073808154
 30
0.0
  0
VERTEX
  5
DD3
  8
RAMKA
 10
502.4699896744646
 20
95.43323930951044
 30
0.0
  0
VERTEX
  5
DD4
  8
RAMKA
 10
504.9066191688289
 20
94.2903821666531
 30
0.0
  0
SEQEND
  5
F51
  8
RAMKA
  0
POLYLINE
  5
1DB
  8
RAMKA
 66
     1
 10
0.0
 20
0.0
 30
0.0
 70
     1
  0
VERTEX
  5
DD5
  8
RAMKA
 10
525.0209048831148
 20
94.2903821666531
 30
0.0
  0
VERTEX
  5
DD6
  8
RAMKA
 10
528.0699896744645
 20
95.43323930951044
 30
0.0
  0
VERTEX
  5
DD7
  8
RAMKA
 10
530.8172440485141
 20
98.86181073808154
 30
0.0
  0
VERTEX
  5
DD8
  8
RAMKA
 10
533.2626680052635
 20
104.5760964523673
 30
0.0
  0
VERTEX
  5
DD9
  8
RAMKA
 10
534.1813509507415
 20
108.0046678809389
 30
0.0
  0
VERTEX
  5
DDA
  8
RAMKA
 10
534.7982034789193
 20
113.7189535952247
 30
0.0
  0
VERTEX
  5
DDB
  8
RAMKA
 10
533.888314995826
 20
117.1475250237958
 30
0.0
  0
VERTEX
  5
DDC
  8
RAMKA
 10
531.4516855014617
 20
118.2903821666531
 30
0.0
  0
VERTEX
  5
DDD
  8
RAMKA
 10
529.6231140728901
 20
118.2903821666531
 30
0.0
  0
VERTEX
  5
DDE
  8
RAMKA
 10
526.5740292815403
 20
117.1475250237958
 30
0.0
  0
VERTEX
  5
DDF
  8
RAMKA
 10
523.8267749074907
 20
113.7189535952247
 30
0.0
  0
VERTEX
  5
DE0
  8
RAMKA
 10
521.3813509507413
 20
108.0046678809389
 30
0.0
  0
VERTEX
  5
DE1
  8
RAMKA
 10
520.4626680052634
 20
104.5760964523673
 30
0.0
  0
VERTEX
  5
DE2
  8
RAMKA
 10
519.8458154770856
 20
98.86181073808154
 30
0.0
  0
VERTEX
  5
DE3
  8
RAMKA
 10
520.7557039601788
 20
95.43323930951044
 30
0.0
  0
VERTEX
  5
DE4
  8
RAMKA
 10
523.1923334545431
 20
94.2903821666531
 30
0.0
  0
SEQEND
  5
F52
  8
RAMKA
  0
POLYLINE
  5
1DC
  8
RAMKA
 66
     1
 10
0.0
 20
0.0
 30
0.0
 70
     1
  0
VERTEX
  5
DE5
  8
RAMKA
 10
0.0
 20
1000.0
 30
0.0
  0
VERTEX
  5
DE6
  8
RAMKA
 10
2000.0
 20
1000.0
 30
0.0
  0
VERTEX
  5
DE7
  8
RAMKA
 10
2000.0
 20
0.0
 30
0.0
  0
VERTEX
  5
DE8
  8
RAMKA
 10
0.0
 20
0.0000000000011369
 30
0.0
  0
SEQEND
  5
F53
  8
RAMKA
  0
ENDSEC
  0
EOF
