  0
SECTION
  2
HEADER
  9
$ACADVER
  1
AC1009
  9
$DWGCODEPAGE
  3
ansi_1250
  9
$INSBASE
 10
0.0
 20
0.0
 30
0.0
  9
$EXTMIN
 10
2935.786659142307
 20
21.7558308322391
 30
0.0
  9
$EXTMAX
 10
4749.179780427256
 20
2426.109489750087
 30
0.0
  9
$LIMMIN
 10
0.0
 20
0.0
  9
$LIMMAX
 10
12.0
 20
9.0
  9
$ORTHOMODE
 70
     0
  9
$REGENMODE
 70
     1
  9
$FILLMODE
 70
     1
  9
$QTEXTMODE
 70
     0
  9
$MIRRTEXT
 70
     1
  9
$DRAGMODE
 70
     2
  9
$LTSCALE
 40
1.0
  9
$OSMODE
 70
    37
  9
$ATTMODE
 70
     1
  9
$TEXTSIZE
 40
0.2
  9
$TRACEWID
 40
0.05
  9
$TEXTSTYLE
  7
STANDARD
  9
$CLAYER
  8
0
  9
$CELTYPE
  6
BYLAYER
  9
$CECOLOR
 62
   256
  9
$DIMSCALE
 40
1.0
  9
$DIMASZ
 40
0.18
  9
$DIMEXO
 40
0.0625
  9
$DIMDLI
 40
0.38
  9
$DIMRND
 40
0.0
  9
$DIMDLE
 40
0.0
  9
$DIMEXE
 40
0.18
  9
$DIMTP
 40
0.0
  9
$DIMTM
 40
0.0
  9
$DIMTXT
 40
0.18
  9
$DIMCEN
 40
0.09
  9
$DIMTSZ
 40
0.0
  9
$DIMTOL
 70
     0
  9
$DIMLIM
 70
     0
  9
$DIMTIH
 70
     1
  9
$DIMTOH
 70
     1
  9
$DIMSE1
 70
     0
  9
$DIMSE2
 70
     0
  9
$DIMTAD
 70
     0
  9
$DIMZIN
 70
     0
  9
$DIMBLK
  1

  9
$DIMASO
 70
     1
  9
$DIMSHO
 70
     1
  9
$DIMPOST
  1

  9
$DIMAPOST
  1

  9
$DIMALT
 70
     0
  9
$DIMALTD
 70
     2
  9
$DIMALTF
 40
25.4
  9
$DIMLFAC
 40
1.0
  9
$DIMTOFL
 70
     0
  9
$DIMTVP
 40
0.0
  9
$DIMTIX
 70
     0
  9
$DIMSOXD
 70
     0
  9
$DIMSAH
 70
     0
  9
$DIMBLK1
  1

  9
$DIMBLK2
  1

  9
$DIMSTYLE
  2
STANDARD
  9
$DIMCLRD
 70
     0
  9
$DIMCLRE
 70
     0
  9
$DIMCLRT
 70
     0
  9
$DIMTFAC
 40
1.0
  9
$DIMGAP
 40
0.09
  9
$LUNITS
 70
     2
  9
$LUPREC
 70
     4
  9
$SKETCHINC
 40
0.1
  9
$FILLETRAD
 40
0.5
  9
$AUNITS
 70
     0
  9
$AUPREC
 70
     0
  9
$MENU
  1
.
  9
$ELEVATION
 40
0.0
  9
$PELEVATION
 40
0.0
  9
$THICKNESS
 40
0.0
  9
$LIMCHECK
 70
     0
  9
$CHAMFERA
 40
0.0
  9
$CHAMFERB
 40
0.0
  9
$SKPOLY
 70
     0
  9
$TDCREATE
 40
2454910.5
  9
$TDUPDATE
 40
2457949.431964977
  9
$TDINDWG
 40
0.0000000116
  9
$TDUSRTIMER
 40
0.0000000116
  9
$USRTIMER
 70
     1
  9
$ANGBASE
 50
0.0
  9
$ANGDIR
 70
     0
  9
$PDMODE
 70
     0
  9
$PDSIZE
 40
0.0
  9
$PLINEWID
 40
0.0
  9
$COORDS
 70
     1
  9
$SPLFRAME
 70
     0
  9
$SPLINETYPE
 70
     6
  9
$SPLINESEGS
 70
     8
  9
$ATTDIA
 70
     0
  9
$ATTREQ
 70
     1
  9
$HANDLING
 70
     1
  9
$HANDSEED
  5
576
  9
$SURFTAB1
 70
     6
  9
$SURFTAB2
 70
     6
  9
$SURFTYPE
 70
     6
  9
$SURFU
 70
     6
  9
$SURFV
 70
     6
  9
$UCSNAME
  2

  9
$UCSORG
 10
0.0
 20
0.0
 30
0.0
  9
$UCSXDIR
 10
1.0
 20
0.0
 30
0.0
  9
$UCSYDIR
 10
0.0
 20
1.0
 30
0.0
  9
$PUCSNAME
  2

  9
$PUCSORG
 10
0.0
 20
0.0
 30
0.0
  9
$PUCSXDIR
 10
1.0
 20
0.0
 30
0.0
  9
$PUCSYDIR
 10
0.0
 20
1.0
 30
0.0
  9
$USERI1
 70
     0
  9
$USERI2
 70
     0
  9
$USERI3
 70
     0
  9
$USERI4
 70
     0
  9
$USERI5
 70
     0
  9
$USERR1
 40
0.0
  9
$USERR2
 40
0.0
  9
$USERR3
 40
0.0
  9
$USERR4
 40
0.0
  9
$USERR5
 40
0.0
  9
$WORLDVIEW
 70
     1
  9
$SHADEDGE
 70
     3
  9
$SHADEDIF
 70
    70
  9
$TILEMODE
 70
     1
  9
$MAXACTVP
 70
    64
  9
$PLIMCHECK
 70
     0
  9
$PEXTMIN
 10
1.000000000000000E+20
 20
1.000000000000000E+20
 30
1.000000000000000E+20
  9
$PEXTMAX
 10
-1.000000000000000E+20
 20
-1.000000000000000E+20
 30
-1.000000000000000E+20
  9
$PLIMMIN
 10
0.0
 20
0.0
  9
$PLIMMAX
 10
12.0
 20
9.0
  9
$UNITMODE
 70
     0
  9
$VISRETAIN
 70
     1
  9
$PLINEGEN
 70
     0
  9
$PSLTSCALE
 70
     1
  0
ENDSEC
  0
SECTION
  2
TABLES
  0
TABLE
  2
VPORT
 70
     1
  0
VPORT
  2
*ACTIVE
 70
     0
 10
0.0
 20
0.0
 11
1.0
 21
1.0
 12
10.42990654205607
 22
4.5
 13
0.0
 23
0.0
 14
0.5
 24
0.5
 15
0.5
 25
0.5
 16
0.0
 26
0.0
 36
1.0
 17
0.0
 27
0.0
 37
0.0
 40
9.0
 41
1.972972972850329
 42
50.0
 43
0.0
 44
0.0
 50
0.0
 51
0.0
 71
     0
 72
   100
 73
     1
 74
     3
 75
     0
 76
     0
 77
     0
 78
     0
  0
ENDTAB
  0
TABLE
  2
LTYPE
 70
     2
  0
LTYPE
  2
CONTINUOUS
 70
     0
  3
Solid line
 72
    65
 73
     0
 40
0.0
  0
LTYPE
  2
CONTINUOUS2
 70
     0
  3
Solid Line
 72
    65
 73
     0
 40
0.0
  0
ENDTAB
  0
TABLE
  2
LAYER
 70
     2
  0
LAYER
  2
0
 70
     0
 62
     7
  6
CONTINUOUS
  0
LAYER
  2
LAYER_1
 70
     0
 62
    18
  6
CONTINUOUS
  0
ENDTAB
  0
TABLE
  2
STYLE
 70
     1
  0
STYLE
  2
STANDARD
 70
     0
 40
0.0
 41
1.0
 50
0.0
 71
     0
 42
0.2
  3
txt
  4

  0
ENDTAB
  0
TABLE
  2
VIEW
 70
     0
  0
ENDTAB
  0
TABLE
  2
UCS
 70
     0
  0
ENDTAB
  0
TABLE
  2
APPID
 70
     1
  0
APPID
  2
ACAD
 70
     0
  0
ENDTAB
  0
TABLE
  2
DIMSTYLE
 70
     1
  0
DIMSTYLE
  2
STANDARD
 70
     0
  3

  4

  5

  6

  7

 40
1.0
 41
0.18
 42
0.0625
 43
0.38
 44
0.18
 45
0.0
 46
0.0
 47
0.0
 48
0.0
140
0.18
141
0.09
142
0.0
143
25.4
144
1.0
145
0.0
146
1.0
147
0.09
 71
     0
 72
     0
 73
     1
 74
     1
 75
     0
 76
     0
 77
     0
 78
     0
170
     0
171
     2
172
     0
173
     0
174
     0
175
     0
176
     0
177
     0
178
     0
  0
ENDTAB
  0
ENDSEC
  0
SECTION
  2
BLOCKS
  0
BLOCK
  8
0
  2
$MODEL_SPACE
 70
     0
 10
0.0
 20
0.0
 30
0.0
  3
$MODEL_SPACE
  1

  0
ENDBLK
  5
21
  8
0
  0
BLOCK
 67
     1
  8
0
  2
$PAPER_SPACE
 70
     0
 10
0.0
 20
0.0
 30
0.0
  3
$PAPER_SPACE
  1

  0
ENDBLK
  5
1D
 67
     1
  8
0
  0
ENDSEC
  0
SECTION
  2
ENTITIES
  0
POLYLINE
  5
70
  8
LAYER_1
 66
     1
 10
0.0
 20
0.0
 30
0.0
 70
     1
  0
VERTEX
  5
107
  8
LAYER_1
 10
3576.762629672211
 20
692.5663780843073
 30
0.0
 42
0.4142135623730951
  0
VERTEX
  5
108
  8
LAYER_1
 10
3574.150129651031
 20
689.9538780631273
 30
0.0
 42
0.4142135623730951
  0
VERTEX
  5
109
  8
LAYER_1
 10
3576.762629672211
 20
687.3413780419472
 30
0.0
 42
0.4142135623730951
  0
VERTEX
  5
10A
  8
LAYER_1
 10
3579.375129693392
 20
689.9538780631273
 30
0.0
 42
0.4142135623730951
  0
SEQEND
  5
4E6
  8
LAYER_1
  0
POLYLINE
  5
71
  8
LAYER_1
 66
     1
 10
0.0
 20
0.0
 30
0.0
 70
     1
  0
VERTEX
  5
10B
  8
LAYER_1
 10
3576.762629672211
 20
922.4663799481526
 30
0.0
 42
0.4142135623730951
  0
VERTEX
  5
10C
  8
LAYER_1
 10
3574.150129651031
 20
919.8538799269726
 30
0.0
 42
0.4142135623730951
  0
VERTEX
  5
10D
  8
LAYER_1
 10
3576.762629672211
 20
917.2413799057925
 30
0.0
 42
0.4142135623730951
  0
VERTEX
  5
10E
  8
LAYER_1
 10
3579.375129693392
 20
919.8538799269726
 30
0.0
 42
0.4142135623730951
  0
SEQEND
  5
4E7
  8
LAYER_1
  0
POLYLINE
  5
72
  8
LAYER_1
 66
     1
 10
0.0
 20
0.0
 30
0.0
 70
     1
  0
VERTEX
  5
10F
  8
LAYER_1
 10
3576.762629672211
 20
1152.366381811999
 30
0.0
 42
0.4142135623730951
  0
VERTEX
  5
110
  8
LAYER_1
 10
3574.150129651031
 20
1149.753881790818
 30
0.0
 42
0.4142135623730951
  0
VERTEX
  5
111
  8
LAYER_1
 10
3576.762629672211
 20
1147.141381769638
 30
0.0
 42
0.4142135623730951
  0
VERTEX
  5
112
  8
LAYER_1
 10
3579.375129693392
 20
1149.753881790818
 30
0.0
 42
0.4142135623730951
  0
SEQEND
  5
4E8
  8
LAYER_1
  0
POLYLINE
  5
73
  8
LAYER_1
 66
     1
 10
0.0
 20
0.0
 30
0.0
 70
     1
  0
VERTEX
  5
113
  8
LAYER_1
 10
4730.442639025327
 20
1152.366381811999
 30
0.0
 42
0.4142135623730951
  0
VERTEX
  5
114
  8
LAYER_1
 10
4727.830139004147
 20
1149.753881790818
 30
0.0
 42
0.4142135623730951
  0
VERTEX
  5
115
  8
LAYER_1
 10
4730.442639025327
 20
1147.141381769638
 30
0.0
 42
0.4142135623730951
  0
VERTEX
  5
116
  8
LAYER_1
 10
4733.055139046507
 20
1149.753881790818
 30
0.0
 42
0.4142135623730951
  0
SEQEND
  5
4E9
  8
LAYER_1
  0
POLYLINE
  5
74
  8
LAYER_1
 66
     1
 10
0.0
 20
0.0
 30
0.0
 70
     1
  0
VERTEX
  5
117
  8
LAYER_1
 10
4730.442639025327
 20
922.4663799481526
 30
0.0
 42
0.4142135623730951
  0
VERTEX
  5
118
  8
LAYER_1
 10
4727.830139004147
 20
919.8538799269726
 30
0.0
 42
0.4142135623730951
  0
VERTEX
  5
119
  8
LAYER_1
 10
4730.442639025327
 20
917.2413799057925
 30
0.0
 42
0.4142135623730951
  0
VERTEX
  5
11A
  8
LAYER_1
 10
4733.055139046507
 20
919.8538799269726
 30
0.0
 42
0.4142135623730951
  0
SEQEND
  5
4EA
  8
LAYER_1
  0
POLYLINE
  5
75
  8
LAYER_1
 66
     1
 10
0.0
 20
0.0
 30
0.0
 70
     1
  0
VERTEX
  5
11B
  8
LAYER_1
 10
4730.442639025327
 20
692.5663780843073
 30
0.0
 42
0.4142135623730951
  0
VERTEX
  5
11C
  8
LAYER_1
 10
4727.830139004147
 20
689.9538780631273
 30
0.0
 42
0.4142135623730951
  0
VERTEX
  5
11D
  8
LAYER_1
 10
4730.442639025327
 20
687.3413780419472
 30
0.0
 42
0.4142135623730951
  0
VERTEX
  5
11E
  8
LAYER_1
 10
4733.055139046507
 20
689.9538780631273
 30
0.0
 42
0.4142135623730951
  0
SEQEND
  5
4EB
  8
LAYER_1
  0
POLYLINE
  5
76
  8
LAYER_1
 66
     1
 10
0.0
 20
0.0
 30
0.0
 70
     1
  0
VERTEX
  5
11F
  8
LAYER_1
 10
3576.762629672211
 20
559.8263817103342
 30
0.0
 42
0.4142135623730951
  0
VERTEX
  5
120
  8
LAYER_1
 10
3574.150129651031
 20
557.2138816891542
 30
0.0
 42
0.4142135623730951
  0
VERTEX
  5
121
  8
LAYER_1
 10
3576.762629672211
 20
554.6013816679741
 30
0.0
 42
0.4142135623730951
  0
VERTEX
  5
122
  8
LAYER_1
 10
3579.375129693392
 20
557.2138816891542
 30
0.0
 42
0.4142135623730951
  0
SEQEND
  5
4EC
  8
LAYER_1
  0
POLYLINE
  5
77
  8
LAYER_1
 66
     1
 10
0.0
 20
0.0
 30
0.0
 70
     1
  0
VERTEX
  5
123
  8
LAYER_1
 10
3576.762629672211
 20
329.9263798464889
 30
0.0
 42
0.4142135623730951
  0
VERTEX
  5
124
  8
LAYER_1
 10
3574.150129651031
 20
327.3138798253088
 30
0.0
 42
0.4142135623730951
  0
VERTEX
  5
125
  8
LAYER_1
 10
3576.762629672211
 20
324.7013798041288
 30
0.0
 42
0.4142135623730951
  0
VERTEX
  5
126
  8
LAYER_1
 10
3579.375129693392
 20
327.3138798253088
 30
0.0
 42
0.4142135623730951
  0
SEQEND
  5
4ED
  8
LAYER_1
  0
POLYLINE
  5
78
  8
LAYER_1
 66
     1
 10
0.0
 20
0.0
 30
0.0
 70
     1
  0
VERTEX
  5
127
  8
LAYER_1
 10
3576.762629672211
 20
100.0263779826433
 30
0.0
 42
0.4142135623730951
  0
VERTEX
  5
128
  8
LAYER_1
 10
3574.150129651031
 20
97.4138779614633
 30
0.0
 42
0.4142135623730951
  0
VERTEX
  5
129
  8
LAYER_1
 10
3576.762629672211
 20
94.80137794028303
 30
0.0
 42
0.4142135623730951
  0
VERTEX
  5
12A
  8
LAYER_1
 10
3579.375129693392
 20
97.4138779614633
 30
0.0
 42
0.4142135623730951
  0
SEQEND
  5
4EE
  8
LAYER_1
  0
POLYLINE
  5
79
  8
LAYER_1
 66
     1
 10
0.0
 20
0.0
 30
0.0
 70
     1
  0
VERTEX
  5
12B
  8
LAYER_1
 10
4730.442639025327
 20
559.8263817103342
 30
0.0
 42
0.4142135623730951
  0
VERTEX
  5
12C
  8
LAYER_1
 10
4727.830139004147
 20
557.2138816891542
 30
0.0
 42
0.4142135623730951
  0
VERTEX
  5
12D
  8
LAYER_1
 10
4730.442639025327
 20
554.6013816679741
 30
0.0
 42
0.4142135623730951
  0
VERTEX
  5
12E
  8
LAYER_1
 10
4733.055139046507
 20
557.2138816891542
 30
0.0
 42
0.4142135623730951
  0
SEQEND
  5
4EF
  8
LAYER_1
  0
POLYLINE
  5
7A
  8
LAYER_1
 66
     1
 10
0.0
 20
0.0
 30
0.0
 70
     1
  0
VERTEX
  5
12F
  8
LAYER_1
 10
4730.442639025327
 20
329.9263798464889
 30
0.0
 42
0.4142135623730951
  0
VERTEX
  5
130
  8
LAYER_1
 10
4727.830139004147
 20
327.3138798253088
 30
0.0
 42
0.4142135623730951
  0
VERTEX
  5
131
  8
LAYER_1
 10
4730.442639025327
 20
324.7013798041288
 30
0.0
 42
0.4142135623730951
  0
VERTEX
  5
132
  8
LAYER_1
 10
4733.055139046507
 20
327.3138798253088
 30
0.0
 42
0.4142135623730951
  0
SEQEND
  5
4F0
  8
LAYER_1
  0
POLYLINE
  5
7B
  8
LAYER_1
 66
     1
 10
0.0
 20
0.0
 30
0.0
 70
     1
  0
VERTEX
  5
133
  8
LAYER_1
 10
4730.442639025327
 20
100.0263779826433
 30
0.0
 42
0.4142135623730951
  0
VERTEX
  5
134
  8
LAYER_1
 10
4727.830139004147
 20
97.4138779614633
 30
0.0
 42
0.4142135623730951
  0
VERTEX
  5
135
  8
LAYER_1
 10
4730.442639025327
 20
94.80137794028303
 30
0.0
 42
0.4142135623730951
  0
VERTEX
  5
136
  8
LAYER_1
 10
4733.055139046507
 20
97.4138779614633
 30
0.0
 42
0.4142135623730951
  0
SEQEND
  5
4F1
  8
LAYER_1
  0
POLYLINE
  5
7C
  8
LAYER_1
 66
     1
 10
0.0
 20
0.0
 30
0.0
 70
     1
  0
VERTEX
  5
137
  8
LAYER_1
 10
3105.599160519012
 20
31.16083090848679
 30
0.0
 42
0.4142135623730951
  0
VERTEX
  5
138
  8
LAYER_1
 10
3108.211660540192
 20
28.54833088730675
 30
0.0
 42
0.4142135623730951
  0
VERTEX
  5
139
  8
LAYER_1
 10
3110.824160561372
 20
31.16083090848679
 30
0.0
 42
0.4142135623730951
  0
VERTEX
  5
13A
  8
LAYER_1
 10
3108.211660540192
 20
33.77333092966683
 30
0.0
 42
0.4142135623730951
  0
SEQEND
  5
4F2
  8
LAYER_1
  0
POLYLINE
  5
7D
  8
LAYER_1
 66
     1
 10
0.0
 20
0.0
 30
0.0
 70
     1
  0
VERTEX
  5
13B
  8
LAYER_1
 10
3335.499162382857
 20
31.16083090848679
 30
0.0
 42
0.4142135623730951
  0
VERTEX
  5
13C
  8
LAYER_1
 10
3338.111662404037
 20
28.54833088730675
 30
0.0
 42
0.4142135623730951
  0
VERTEX
  5
13D
  8
LAYER_1
 10
3340.724162425217
 20
31.16083090848679
 30
0.0
 42
0.4142135623730951
  0
VERTEX
  5
13E
  8
LAYER_1
 10
3338.111662404037
 20
33.77333092966683
 30
0.0
 42
0.4142135623730951
  0
SEQEND
  5
4F3
  8
LAYER_1
  0
POLYLINE
  5
7E
  8
LAYER_1
 66
     1
 10
0.0
 20
0.0
 30
0.0
 70
     1
  0
VERTEX
  5
13F
  8
LAYER_1
 10
3105.599160519012
 20
848.3508375336105
 30
0.0
 42
0.4142135623730951
  0
VERTEX
  5
140
  8
LAYER_1
 10
3108.211660540192
 20
845.7383375124305
 30
0.0
 42
0.4142135623730951
  0
VERTEX
  5
141
  8
LAYER_1
 10
3110.824160561372
 20
848.3508375336105
 30
0.0
 42
0.4142135623730951
  0
VERTEX
  5
142
  8
LAYER_1
 10
3108.211660540192
 20
850.9633375547908
 30
0.0
 42
0.4142135623730951
  0
SEQEND
  5
4F4
  8
LAYER_1
  0
POLYLINE
  5
7F
  8
LAYER_1
 66
     1
 10
0.0
 20
0.0
 30
0.0
 70
     1
  0
VERTEX
  5
143
  8
LAYER_1
 10
3335.499162382857
 20
848.3508375336105
 30
0.0
 42
0.4142135623730951
  0
VERTEX
  5
144
  8
LAYER_1
 10
3338.111662404037
 20
845.7383375124305
 30
0.0
 42
0.4142135623730951
  0
VERTEX
  5
145
  8
LAYER_1
 10
3340.724162425217
 20
848.3508375336105
 30
0.0
 42
0.4142135623730951
  0
VERTEX
  5
146
  8
LAYER_1
 10
3338.111662404037
 20
850.9633375547908
 30
0.0
 42
0.4142135623730951
  0
SEQEND
  5
4F5
  8
LAYER_1
  0
POLYLINE
  5
80
  8
LAYER_1
 66
     1
 10
0.0
 20
0.0
 30
0.0
 70
     1
  0
VERTEX
  5
147
  8
LAYER_1
 10
3404.416912941587
 20
106.8188315218617
 30
0.0
 42
0.4142135623730951
  0
VERTEX
  5
148
  8
LAYER_1
 10
3406.036662954719
 20
105.1990815087297
 30
0.0
 42
0.4142135623730951
  0
VERTEX
  5
149
  8
LAYER_1
 10
3407.65641296785
 20
106.8188315218617
 30
0.0
 42
0.4142135623730951
  0
VERTEX
  5
14A
  8
LAYER_1
 10
3406.036662954719
 20
108.4385815349929
 30
0.0
 42
0.4142135623730951
  0
SEQEND
  5
4F6
  8
LAYER_1
  0
POLYLINE
  5
81
  8
LAYER_1
 66
     1
 10
0.0
 20
0.0
 30
0.0
 70
     1
  0
VERTEX
  5
14B
  8
LAYER_1
 10
3404.416912941587
 20
162.3083319717261
 30
0.0
 42
0.4142135623730951
  0
VERTEX
  5
14C
  8
LAYER_1
 10
3406.036662954719
 20
160.6885819585941
 30
0.0
 42
0.4142135623730951
  0
VERTEX
  5
14D
  8
LAYER_1
 10
3407.65641296785
 20
162.3083319717261
 30
0.0
 42
0.4142135623730951
  0
VERTEX
  5
14E
  8
LAYER_1
 10
3406.036662954719
 20
163.9280819848577
 30
0.0
 42
0.4142135623730951
  0
SEQEND
  5
4F7
  8
LAYER_1
  0
POLYLINE
  5
82
  8
LAYER_1
 66
     1
 10
0.0
 20
0.0
 30
0.0
 70
     1
  0
VERTEX
  5
14F
  8
LAYER_1
 10
3404.416912941587
 20
217.7978324215906
 30
0.0
 42
0.4142135623730951
  0
VERTEX
  5
150
  8
LAYER_1
 10
3406.036662954719
 20
216.178082408459
 30
0.0
 42
0.4142135623730951
  0
VERTEX
  5
151
  8
LAYER_1
 10
3407.65641296785
 20
217.7978324215906
 30
0.0
 42
0.4142135623730951
  0
VERTEX
  5
152
  8
LAYER_1
 10
3406.036662954719
 20
219.4175824347221
 30
0.0
 42
0.4142135623730951
  0
SEQEND
  5
4F8
  8
LAYER_1
  0
POLYLINE
  5
83
  8
LAYER_1
 66
     1
 10
0.0
 20
0.0
 30
0.0
 70
     1
  0
VERTEX
  5
153
  8
LAYER_1
 10
3404.416912941587
 20
273.287332871455
 30
0.0
 42
0.4142135623730951
  0
VERTEX
  5
154
  8
LAYER_1
 10
3406.036662954719
 20
271.6675828583234
 30
0.0
 42
0.4142135623730951
  0
VERTEX
  5
155
  8
LAYER_1
 10
3407.65641296785
 20
273.287332871455
 30
0.0
 42
0.4142135623730951
  0
VERTEX
  5
156
  8
LAYER_1
 10
3406.036662954719
 20
274.9070828845865
 30
0.0
 42
0.4142135623730951
  0
SEQEND
  5
4F9
  8
LAYER_1
  0
POLYLINE
  5
84
  8
LAYER_1
 66
     1
 10
0.0
 20
0.0
 30
0.0
 70
     1
  0
VERTEX
  5
157
  8
LAYER_1
 10
3404.416912941587
 20
328.7768333213198
 30
0.0
 42
0.4142135623730951
  0
VERTEX
  5
158
  8
LAYER_1
 10
3406.036662954719
 20
327.1570833081878
 30
0.0
 42
0.4142135623730951
  0
VERTEX
  5
159
  8
LAYER_1
 10
3407.65641296785
 20
328.7768333213198
 30
0.0
 42
0.4142135623730951
  0
VERTEX
  5
15A
  8
LAYER_1
 10
3406.036662954719
 20
330.396583334451
 30
0.0
 42
0.4142135623730951
  0
SEQEND
  5
4FA
  8
LAYER_1
  0
POLYLINE
  5
85
  8
LAYER_1
 66
     1
 10
0.0
 20
0.0
 30
0.0
 70
     1
  0
VERTEX
  5
15B
  8
LAYER_1
 10
3404.416912941587
 20
384.2663337711842
 30
0.0
 42
0.4142135623730951
  0
VERTEX
  5
15C
  8
LAYER_1
 10
3406.036662954719
 20
382.6465837580522
 30
0.0
 42
0.4142135623730951
  0
VERTEX
  5
15D
  8
LAYER_1
 10
3407.65641296785
 20
384.2663337711842
 30
0.0
 42
0.4142135623730951
  0
VERTEX
  5
15E
  8
LAYER_1
 10
3406.036662954719
 20
385.8860837843154
 30
0.0
 42
0.4142135623730951
  0
SEQEND
  5
4FB
  8
LAYER_1
  0
POLYLINE
  5
86
  8
LAYER_1
 66
     1
 10
0.0
 20
0.0
 30
0.0
 70
     1
  0
VERTEX
  5
15F
  8
LAYER_1
 10
3404.416912941587
 20
439.7558342210486
 30
0.0
 42
0.4142135623730951
  0
VERTEX
  5
160
  8
LAYER_1
 10
3406.036662954719
 20
438.1360842079166
 30
0.0
 42
0.4142135623730951
  0
VERTEX
  5
161
  8
LAYER_1
 10
3407.65641296785
 20
439.7558342210486
 30
0.0
 42
0.4142135623730951
  0
VERTEX
  5
162
  8
LAYER_1
 10
3406.036662954719
 20
441.3755842341802
 30
0.0
 42
0.4142135623730951
  0
SEQEND
  5
4FC
  8
LAYER_1
  0
POLYLINE
  5
87
  8
LAYER_1
 66
     1
 10
0.0
 20
0.0
 30
0.0
 70
     1
  0
VERTEX
  5
163
  8
LAYER_1
 10
3404.416912941587
 20
495.2453346709133
 30
0.0
 42
0.4142135623730951
  0
VERTEX
  5
164
  8
LAYER_1
 10
3406.036662954719
 20
493.6255846577817
 30
0.0
 42
0.4142135623730951
  0
VERTEX
  5
165
  8
LAYER_1
 10
3407.65641296785
 20
495.2453346709133
 30
0.0
 42
0.4142135623730951
  0
VERTEX
  5
166
  8
LAYER_1
 10
3406.036662954719
 20
496.8650846840449
 30
0.0
 42
0.4142135623730951
  0
SEQEND
  5
4FD
  8
LAYER_1
  0
POLYLINE
  5
88
  8
LAYER_1
 66
     1
 10
0.0
 20
0.0
 30
0.0
 70
     1
  0
VERTEX
  5
167
  8
LAYER_1
 10
3404.416912941587
 20
550.7348351207781
 30
0.0
 42
0.4142135623730951
  0
VERTEX
  5
168
  8
LAYER_1
 10
3406.036662954719
 20
549.1150851076461
 30
0.0
 42
0.4142135623730951
  0
VERTEX
  5
169
  8
LAYER_1
 10
3407.65641296785
 20
550.7348351207781
 30
0.0
 42
0.4142135623730951
  0
VERTEX
  5
16A
  8
LAYER_1
 10
3406.036662954719
 20
552.3545851339097
 30
0.0
 42
0.4142135623730951
  0
SEQEND
  5
4FE
  8
LAYER_1
  0
POLYLINE
  5
89
  8
LAYER_1
 66
     1
 10
0.0
 20
0.0
 30
0.0
 70
     1
  0
VERTEX
  5
16B
  8
LAYER_1
 10
3404.416912941587
 20
606.2243355706426
 30
0.0
 42
0.4142135623730951
  0
VERTEX
  5
16C
  8
LAYER_1
 10
3406.036662954719
 20
604.6045855575107
 30
0.0
 42
0.4142135623730951
  0
VERTEX
  5
16D
  8
LAYER_1
 10
3407.65641296785
 20
606.2243355706426
 30
0.0
 42
0.4142135623730951
  0
VERTEX
  5
16E
  8
LAYER_1
 10
3406.036662954719
 20
607.8440855837739
 30
0.0
 42
0.4142135623730951
  0
SEQEND
  5
4FF
  8
LAYER_1
  0
POLYLINE
  5
8A
  8
LAYER_1
 66
     1
 10
0.0
 20
0.0
 30
0.0
 70
     1
  0
VERTEX
  5
16F
  8
LAYER_1
 10
3404.416912941587
 20
661.713836020507
 30
0.0
 42
0.4142135623730951
  0
VERTEX
  5
170
  8
LAYER_1
 10
3406.036662954719
 20
660.0940860073754
 30
0.0
 42
0.4142135623730951
  0
VERTEX
  5
171
  8
LAYER_1
 10
3407.65641296785
 20
661.713836020507
 30
0.0
 42
0.4142135623730951
  0
VERTEX
  5
172
  8
LAYER_1
 10
3406.036662954719
 20
663.3335860336385
 30
0.0
 42
0.4142135623730951
  0
SEQEND
  5
500
  8
LAYER_1
  0
POLYLINE
  5
8B
  8
LAYER_1
 66
     1
 10
0.0
 20
0.0
 30
0.0
 70
     1
  0
VERTEX
  5
173
  8
LAYER_1
 10
3404.416912941587
 20
717.2033364703714
 30
0.0
 42
0.4142135623730951
  0
VERTEX
  5
174
  8
LAYER_1
 10
3406.036662954719
 20
715.5835864572398
 30
0.0
 42
0.4142135623730951
  0
VERTEX
  5
175
  8
LAYER_1
 10
3407.65641296785
 20
717.2033364703714
 30
0.0
 42
0.4142135623730951
  0
VERTEX
  5
176
  8
LAYER_1
 10
3406.036662954719
 20
718.823086483503
 30
0.0
 42
0.4142135623730951
  0
SEQEND
  5
501
  8
LAYER_1
  0
POLYLINE
  5
8C
  8
LAYER_1
 66
     1
 10
0.0
 20
0.0
 30
0.0
 70
     1
  0
VERTEX
  5
177
  8
LAYER_1
 10
3404.416912941587
 20
772.692836920236
 30
0.0
 42
0.4142135623730951
  0
VERTEX
  5
178
  8
LAYER_1
 10
3406.036662954719
 20
771.0730869071044
 30
0.0
 42
0.4142135623730951
  0
VERTEX
  5
179
  8
LAYER_1
 10
3407.65641296785
 20
772.692836920236
 30
0.0
 42
0.4142135623730951
  0
VERTEX
  5
17A
  8
LAYER_1
 10
3406.036662954719
 20
774.3125869333678
 30
0.0
 42
0.4142135623730951
  0
SEQEND
  5
502
  8
LAYER_1
  0
POLYLINE
  5
8D
  8
LAYER_1
 66
     1
 10
0.0
 20
0.0
 30
0.0
 70
     1
  0
VERTEX
  5
17B
  8
LAYER_1
 10
3038.666909976378
 20
106.8188315218617
 30
0.0
 42
0.4142135623730951
  0
VERTEX
  5
17C
  8
LAYER_1
 10
3040.28665998951
 20
105.1990815087297
 30
0.0
 42
0.4142135623730951
  0
VERTEX
  5
17D
  8
LAYER_1
 10
3041.906410002642
 20
106.8188315218617
 30
0.0
 42
0.4142135623730951
  0
VERTEX
  5
17E
  8
LAYER_1
 10
3040.28665998951
 20
108.4385815349929
 30
0.0
 42
0.4142135623730951
  0
SEQEND
  5
503
  8
LAYER_1
  0
POLYLINE
  5
8E
  8
LAYER_1
 66
     1
 10
0.0
 20
0.0
 30
0.0
 70
     1
  0
VERTEX
  5
17F
  8
LAYER_1
 10
3038.666909976378
 20
162.3083319717261
 30
0.0
 42
0.4142135623730951
  0
VERTEX
  5
180
  8
LAYER_1
 10
3040.28665998951
 20
160.6885819585941
 30
0.0
 42
0.4142135623730951
  0
VERTEX
  5
181
  8
LAYER_1
 10
3041.906410002642
 20
162.3083319717261
 30
0.0
 42
0.4142135623730951
  0
VERTEX
  5
182
  8
LAYER_1
 10
3040.28665998951
 20
163.9280819848577
 30
0.0
 42
0.4142135623730951
  0
SEQEND
  5
504
  8
LAYER_1
  0
POLYLINE
  5
8F
  8
LAYER_1
 66
     1
 10
0.0
 20
0.0
 30
0.0
 70
     1
  0
VERTEX
  5
183
  8
LAYER_1
 10
3038.666909976378
 20
217.7978324215906
 30
0.0
 42
0.4142135623730951
  0
VERTEX
  5
184
  8
LAYER_1
 10
3040.28665998951
 20
216.178082408459
 30
0.0
 42
0.4142135623730951
  0
VERTEX
  5
185
  8
LAYER_1
 10
3041.906410002642
 20
217.7978324215906
 30
0.0
 42
0.4142135623730951
  0
VERTEX
  5
186
  8
LAYER_1
 10
3040.28665998951
 20
219.4175824347221
 30
0.0
 42
0.4142135623730951
  0
SEQEND
  5
505
  8
LAYER_1
  0
POLYLINE
  5
90
  8
LAYER_1
 66
     1
 10
0.0
 20
0.0
 30
0.0
 70
     1
  0
VERTEX
  5
187
  8
LAYER_1
 10
3038.666909976378
 20
273.287332871455
 30
0.0
 42
0.4142135623730951
  0
VERTEX
  5
188
  8
LAYER_1
 10
3040.28665998951
 20
271.6675828583234
 30
0.0
 42
0.4142135623730951
  0
VERTEX
  5
189
  8
LAYER_1
 10
3041.906410002642
 20
273.287332871455
 30
0.0
 42
0.4142135623730951
  0
VERTEX
  5
18A
  8
LAYER_1
 10
3040.28665998951
 20
274.9070828845865
 30
0.0
 42
0.4142135623730951
  0
SEQEND
  5
506
  8
LAYER_1
  0
POLYLINE
  5
91
  8
LAYER_1
 66
     1
 10
0.0
 20
0.0
 30
0.0
 70
     1
  0
VERTEX
  5
18B
  8
LAYER_1
 10
3038.666909976378
 20
328.7768333213198
 30
0.0
 42
0.4142135623730951
  0
VERTEX
  5
18C
  8
LAYER_1
 10
3040.28665998951
 20
327.1570833081878
 30
0.0
 42
0.4142135623730951
  0
VERTEX
  5
18D
  8
LAYER_1
 10
3041.906410002642
 20
328.7768333213198
 30
0.0
 42
0.4142135623730951
  0
VERTEX
  5
18E
  8
LAYER_1
 10
3040.28665998951
 20
330.396583334451
 30
0.0
 42
0.4142135623730951
  0
SEQEND
  5
507
  8
LAYER_1
  0
POLYLINE
  5
92
  8
LAYER_1
 66
     1
 10
0.0
 20
0.0
 30
0.0
 70
     1
  0
VERTEX
  5
18F
  8
LAYER_1
 10
3038.666909976378
 20
384.2663337711842
 30
0.0
 42
0.4142135623730951
  0
VERTEX
  5
190
  8
LAYER_1
 10
3040.28665998951
 20
382.6465837580522
 30
0.0
 42
0.4142135623730951
  0
VERTEX
  5
191
  8
LAYER_1
 10
3041.906410002642
 20
384.2663337711842
 30
0.0
 42
0.4142135623730951
  0
VERTEX
  5
192
  8
LAYER_1
 10
3040.28665998951
 20
385.8860837843154
 30
0.0
 42
0.4142135623730951
  0
SEQEND
  5
508
  8
LAYER_1
  0
POLYLINE
  5
93
  8
LAYER_1
 66
     1
 10
0.0
 20
0.0
 30
0.0
 70
     1
  0
VERTEX
  5
193
  8
LAYER_1
 10
3038.666909976378
 20
439.7558342210486
 30
0.0
 42
0.4142135623730951
  0
VERTEX
  5
194
  8
LAYER_1
 10
3040.28665998951
 20
438.1360842079166
 30
0.0
 42
0.4142135623730951
  0
VERTEX
  5
195
  8
LAYER_1
 10
3041.906410002642
 20
439.7558342210486
 30
0.0
 42
0.4142135623730951
  0
VERTEX
  5
196
  8
LAYER_1
 10
3040.28665998951
 20
441.3755842341802
 30
0.0
 42
0.4142135623730951
  0
SEQEND
  5
509
  8
LAYER_1
  0
POLYLINE
  5
94
  8
LAYER_1
 66
     1
 10
0.0
 20
0.0
 30
0.0
 70
     1
  0
VERTEX
  5
197
  8
LAYER_1
 10
3038.666909976378
 20
495.2453346709133
 30
0.0
 42
0.4142135623730951
  0
VERTEX
  5
198
  8
LAYER_1
 10
3040.28665998951
 20
493.6255846577817
 30
0.0
 42
0.4142135623730951
  0
VERTEX
  5
199
  8
LAYER_1
 10
3041.906410002642
 20
495.2453346709133
 30
0.0
 42
0.4142135623730951
  0
VERTEX
  5
19A
  8
LAYER_1
 10
3040.28665998951
 20
496.8650846840449
 30
0.0
 42
0.4142135623730951
  0
SEQEND
  5
50A
  8
LAYER_1
  0
POLYLINE
  5
95
  8
LAYER_1
 66
     1
 10
0.0
 20
0.0
 30
0.0
 70
     1
  0
VERTEX
  5
19B
  8
LAYER_1
 10
3038.666909976378
 20
550.7348351207781
 30
0.0
 42
0.4142135623730951
  0
VERTEX
  5
19C
  8
LAYER_1
 10
3040.28665998951
 20
549.1150851076461
 30
0.0
 42
0.4142135623730951
  0
VERTEX
  5
19D
  8
LAYER_1
 10
3041.906410002642
 20
550.7348351207781
 30
0.0
 42
0.4142135623730951
  0
VERTEX
  5
19E
  8
LAYER_1
 10
3040.28665998951
 20
552.3545851339097
 30
0.0
 42
0.4142135623730951
  0
SEQEND
  5
50B
  8
LAYER_1
  0
POLYLINE
  5
96
  8
LAYER_1
 66
     1
 10
0.0
 20
0.0
 30
0.0
 70
     1
  0
VERTEX
  5
19F
  8
LAYER_1
 10
3038.666909976378
 20
606.2243355706426
 30
0.0
 42
0.4142135623730951
  0
VERTEX
  5
1A0
  8
LAYER_1
 10
3040.28665998951
 20
604.6045855575107
 30
0.0
 42
0.4142135623730951
  0
VERTEX
  5
1A1
  8
LAYER_1
 10
3041.906410002642
 20
606.2243355706426
 30
0.0
 42
0.4142135623730951
  0
VERTEX
  5
1A2
  8
LAYER_1
 10
3040.28665998951
 20
607.8440855837739
 30
0.0
 42
0.4142135623730951
  0
SEQEND
  5
50C
  8
LAYER_1
  0
POLYLINE
  5
97
  8
LAYER_1
 66
     1
 10
0.0
 20
0.0
 30
0.0
 70
     1
  0
VERTEX
  5
1A3
  8
LAYER_1
 10
3038.666909976378
 20
661.713836020507
 30
0.0
 42
0.4142135623730951
  0
VERTEX
  5
1A4
  8
LAYER_1
 10
3040.28665998951
 20
660.0940860073754
 30
0.0
 42
0.4142135623730951
  0
VERTEX
  5
1A5
  8
LAYER_1
 10
3041.906410002642
 20
661.713836020507
 30
0.0
 42
0.4142135623730951
  0
VERTEX
  5
1A6
  8
LAYER_1
 10
3040.28665998951
 20
663.3335860336385
 30
0.0
 42
0.4142135623730951
  0
SEQEND
  5
50D
  8
LAYER_1
  0
POLYLINE
  5
98
  8
LAYER_1
 66
     1
 10
0.0
 20
0.0
 30
0.0
 70
     1
  0
VERTEX
  5
1A7
  8
LAYER_1
 10
3038.666909976378
 20
717.2033364703714
 30
0.0
 42
0.4142135623730951
  0
VERTEX
  5
1A8
  8
LAYER_1
 10
3040.28665998951
 20
715.5835864572398
 30
0.0
 42
0.4142135623730951
  0
VERTEX
  5
1A9
  8
LAYER_1
 10
3041.906410002642
 20
717.2033364703714
 30
0.0
 42
0.4142135623730951
  0
VERTEX
  5
1AA
  8
LAYER_1
 10
3040.28665998951
 20
718.823086483503
 30
0.0
 42
0.4142135623730951
  0
SEQEND
  5
50E
  8
LAYER_1
  0
POLYLINE
  5
99
  8
LAYER_1
 66
     1
 10
0.0
 20
0.0
 30
0.0
 70
     1
  0
VERTEX
  5
1AB
  8
LAYER_1
 10
3038.666909976378
 20
772.692836920236
 30
0.0
 42
0.4142135623730951
  0
VERTEX
  5
1AC
  8
LAYER_1
 10
3040.28665998951
 20
771.0730869071044
 30
0.0
 42
0.4142135623730951
  0
VERTEX
  5
1AD
  8
LAYER_1
 10
3041.906410002642
 20
772.692836920236
 30
0.0
 42
0.4142135623730951
  0
VERTEX
  5
1AE
  8
LAYER_1
 10
3040.28665998951
 20
774.3125869333678
 30
0.0
 42
0.4142135623730951
  0
SEQEND
  5
50F
  8
LAYER_1
  0
POLYLINE
  5
9A
  8
LAYER_1
 66
     1
 10
0.0
 20
0.0
 30
0.0
 70
     1
  0
VERTEX
  5
1AF
  8
LAYER_1
 10
4643.060029566921
 20
1297.323363432546
 30
0.0
 42
0.4142135623730951
  0
VERTEX
  5
1B0
  8
LAYER_1
 10
4644.679779580053
 20
1295.703613419415
 30
0.0
 42
0.4142135623730951
  0
VERTEX
  5
1B1
  8
LAYER_1
 10
4646.299529593185
 20
1297.323363432546
 30
0.0
 42
0.4142135623730951
  0
VERTEX
  5
1B2
  8
LAYER_1
 10
4644.679779580053
 20
1298.943113445678
 30
0.0
 42
0.4142135623730951
  0
SEQEND
  5
510
  8
LAYER_1
  0
POLYLINE
  5
9B
  8
LAYER_1
 66
     1
 10
0.0
 20
0.0
 30
0.0
 70
     1
  0
VERTEX
  5
1B3
  8
LAYER_1
 10
4643.060029566921
 20
1352.812863882411
 30
0.0
 42
0.4142135623730951
  0
VERTEX
  5
1B4
  8
LAYER_1
 10
4644.679779580053
 20
1351.193113869279
 30
0.0
 42
0.4142135623730951
  0
VERTEX
  5
1B5
  8
LAYER_1
 10
4646.299529593185
 20
1352.812863882411
 30
0.0
 42
0.4142135623730951
  0
VERTEX
  5
1B6
  8
LAYER_1
 10
4644.679779580053
 20
1354.432613895543
 30
0.0
 42
0.4142135623730951
  0
SEQEND
  5
511
  8
LAYER_1
  0
POLYLINE
  5
9C
  8
LAYER_1
 66
     1
 10
0.0
 20
0.0
 30
0.0
 70
     1
  0
VERTEX
  5
1B7
  8
LAYER_1
 10
4643.060029566921
 20
1408.302364332275
 30
0.0
 42
0.4142135623730951
  0
VERTEX
  5
1B8
  8
LAYER_1
 10
4644.679779580053
 20
1406.682614319144
 30
0.0
 42
0.4142135623730951
  0
VERTEX
  5
1B9
  8
LAYER_1
 10
4646.299529593185
 20
1408.302364332275
 30
0.0
 42
0.4142135623730951
  0
VERTEX
  5
1BA
  8
LAYER_1
 10
4644.679779580053
 20
1409.922114345407
 30
0.0
 42
0.4142135623730951
  0
SEQEND
  5
512
  8
LAYER_1
  0
POLYLINE
  5
9D
  8
LAYER_1
 66
     1
 10
0.0
 20
0.0
 30
0.0
 70
     1
  0
VERTEX
  5
1BB
  8
LAYER_1
 10
4643.060029566921
 20
1463.79186478214
 30
0.0
 42
0.4142135623730951
  0
VERTEX
  5
1BC
  8
LAYER_1
 10
4644.679779580053
 20
1462.172114769008
 30
0.0
 42
0.4142135623730951
  0
VERTEX
  5
1BD
  8
LAYER_1
 10
4646.299529593185
 20
1463.79186478214
 30
0.0
 42
0.4142135623730951
  0
VERTEX
  5
1BE
  8
LAYER_1
 10
4644.679779580053
 20
1465.411614795271
 30
0.0
 42
0.4142135623730951
  0
SEQEND
  5
513
  8
LAYER_1
  0
POLYLINE
  5
9E
  8
LAYER_1
 66
     1
 10
0.0
 20
0.0
 30
0.0
 70
     1
  0
VERTEX
  5
1BF
  8
LAYER_1
 10
4643.060029566921
 20
1519.281365232004
 30
0.0
 42
0.4142135623730951
  0
VERTEX
  5
1C0
  8
LAYER_1
 10
4644.679779580053
 20
1517.661615218873
 30
0.0
 42
0.4142135623730951
  0
VERTEX
  5
1C1
  8
LAYER_1
 10
4646.299529593185
 20
1519.281365232004
 30
0.0
 42
0.4142135623730951
  0
VERTEX
  5
1C2
  8
LAYER_1
 10
4644.679779580053
 20
1520.901115245136
 30
0.0
 42
0.4142135623730951
  0
SEQEND
  5
514
  8
LAYER_1
  0
POLYLINE
  5
9F
  8
LAYER_1
 66
     1
 10
0.0
 20
0.0
 30
0.0
 70
     1
  0
VERTEX
  5
1C3
  8
LAYER_1
 10
4643.060029566921
 20
1574.770865681869
 30
0.0
 42
0.4142135623730951
  0
VERTEX
  5
1C4
  8
LAYER_1
 10
4644.679779580053
 20
1573.151115668737
 30
0.0
 42
0.4142135623730951
  0
VERTEX
  5
1C5
  8
LAYER_1
 10
4646.299529593185
 20
1574.770865681869
 30
0.0
 42
0.4142135623730951
  0
VERTEX
  5
1C6
  8
LAYER_1
 10
4644.679779580053
 20
1576.390615695001
 30
0.0
 42
0.4142135623730951
  0
SEQEND
  5
515
  8
LAYER_1
  0
POLYLINE
  5
A0
  8
LAYER_1
 66
     1
 10
0.0
 20
0.0
 30
0.0
 70
     1
  0
VERTEX
  5
1C7
  8
LAYER_1
 10
4643.060029566921
 20
1630.260366131733
 30
0.0
 42
0.4142135623730951
  0
VERTEX
  5
1C8
  8
LAYER_1
 10
4644.679779580053
 20
1628.640616118602
 30
0.0
 42
0.4142135623730951
  0
VERTEX
  5
1C9
  8
LAYER_1
 10
4646.299529593185
 20
1630.260366131733
 30
0.0
 42
0.4142135623730951
  0
VERTEX
  5
1CA
  8
LAYER_1
 10
4644.679779580053
 20
1631.880116144865
 30
0.0
 42
0.4142135623730951
  0
SEQEND
  5
516
  8
LAYER_1
  0
POLYLINE
  5
A1
  8
LAYER_1
 66
     1
 10
0.0
 20
0.0
 30
0.0
 70
     1
  0
VERTEX
  5
1CB
  8
LAYER_1
 10
4643.060029566921
 20
1685.749866581599
 30
0.0
 42
0.4142135623730951
  0
VERTEX
  5
1CC
  8
LAYER_1
 10
4644.679779580053
 20
1684.130116568467
 30
0.0
 42
0.4142135623730951
  0
VERTEX
  5
1CD
  8
LAYER_1
 10
4646.299529593185
 20
1685.749866581599
 30
0.0
 42
0.4142135623730951
  0
VERTEX
  5
1CE
  8
LAYER_1
 10
4644.679779580053
 20
1687.369616594729
 30
0.0
 42
0.4142135623730951
  0
SEQEND
  5
517
  8
LAYER_1
  0
POLYLINE
  5
A2
  8
LAYER_1
 66
     1
 10
0.0
 20
0.0
 30
0.0
 70
     1
  0
VERTEX
  5
1CF
  8
LAYER_1
 10
4643.060029566921
 20
1741.239367031463
 30
0.0
 42
0.4142135623730951
  0
VERTEX
  5
1D0
  8
LAYER_1
 10
4644.679779580053
 20
1739.619617018331
 30
0.0
 42
0.4142135623730951
  0
VERTEX
  5
1D1
  8
LAYER_1
 10
4646.299529593185
 20
1741.239367031463
 30
0.0
 42
0.4142135623730951
  0
VERTEX
  5
1D2
  8
LAYER_1
 10
4644.679779580053
 20
1742.859117044594
 30
0.0
 42
0.4142135623730951
  0
SEQEND
  5
518
  8
LAYER_1
  0
POLYLINE
  5
A3
  8
LAYER_1
 66
     1
 10
0.0
 20
0.0
 30
0.0
 70
     1
  0
VERTEX
  5
1D3
  8
LAYER_1
 10
4643.060029566921
 20
1796.728867481328
 30
0.0
 42
0.4142135623730951
  0
VERTEX
  5
1D4
  8
LAYER_1
 10
4644.679779580053
 20
1795.109117468196
 30
0.0
 42
0.4142135623730951
  0
VERTEX
  5
1D5
  8
LAYER_1
 10
4646.299529593185
 20
1796.728867481328
 30
0.0
 42
0.4142135623730951
  0
VERTEX
  5
1D6
  8
LAYER_1
 10
4644.679779580053
 20
1798.348617494458
 30
0.0
 42
0.4142135623730951
  0
SEQEND
  5
519
  8
LAYER_1
  0
POLYLINE
  5
A4
  8
LAYER_1
 66
     1
 10
0.0
 20
0.0
 30
0.0
 70
     1
  0
VERTEX
  5
1D7
  8
LAYER_1
 10
4643.060029566921
 20
1852.218367931192
 30
0.0
 42
0.4142135623730951
  0
VERTEX
  5
1D8
  8
LAYER_1
 10
4644.679779580053
 20
1850.59861791806
 30
0.0
 42
0.4142135623730951
  0
VERTEX
  5
1D9
  8
LAYER_1
 10
4646.299529593185
 20
1852.218367931192
 30
0.0
 42
0.4142135623730951
  0
VERTEX
  5
1DA
  8
LAYER_1
 10
4644.679779580053
 20
1853.838117944323
 30
0.0
 42
0.4142135623730951
  0
SEQEND
  5
51A
  8
LAYER_1
  0
POLYLINE
  5
A5
  8
LAYER_1
 66
     1
 10
0.0
 20
0.0
 30
0.0
 70
     1
  0
VERTEX
  5
1DB
  8
LAYER_1
 10
4277.310026601713
 20
1297.323363432546
 30
0.0
 42
0.4142135623730951
  0
VERTEX
  5
1DC
  8
LAYER_1
 10
4278.929776614845
 20
1295.703613419415
 30
0.0
 42
0.4142135623730951
  0
VERTEX
  5
1DD
  8
LAYER_1
 10
4280.549526627977
 20
1297.323363432546
 30
0.0
 42
0.4142135623730951
  0
VERTEX
  5
1DE
  8
LAYER_1
 10
4278.929776614845
 20
1298.943113445678
 30
0.0
 42
0.4142135623730951
  0
SEQEND
  5
51B
  8
LAYER_1
  0
POLYLINE
  5
A6
  8
LAYER_1
 66
     1
 10
0.0
 20
0.0
 30
0.0
 70
     1
  0
VERTEX
  5
1DF
  8
LAYER_1
 10
4277.310026601713
 20
1352.812863882411
 30
0.0
 42
0.4142135623730951
  0
VERTEX
  5
1E0
  8
LAYER_1
 10
4278.929776614845
 20
1351.193113869279
 30
0.0
 42
0.4142135623730951
  0
VERTEX
  5
1E1
  8
LAYER_1
 10
4280.549526627977
 20
1352.812863882411
 30
0.0
 42
0.4142135623730951
  0
VERTEX
  5
1E2
  8
LAYER_1
 10
4278.929776614845
 20
1354.432613895543
 30
0.0
 42
0.4142135623730951
  0
SEQEND
  5
51C
  8
LAYER_1
  0
POLYLINE
  5
A7
  8
LAYER_1
 66
     1
 10
0.0
 20
0.0
 30
0.0
 70
     1
  0
VERTEX
  5
1E3
  8
LAYER_1
 10
4277.310026601713
 20
1408.302364332275
 30
0.0
 42
0.4142135623730951
  0
VERTEX
  5
1E4
  8
LAYER_1
 10
4278.929776614845
 20
1406.682614319144
 30
0.0
 42
0.4142135623730951
  0
VERTEX
  5
1E5
  8
LAYER_1
 10
4280.549526627977
 20
1408.302364332275
 30
0.0
 42
0.4142135623730951
  0
VERTEX
  5
1E6
  8
LAYER_1
 10
4278.929776614845
 20
1409.922114345407
 30
0.0
 42
0.4142135623730951
  0
SEQEND
  5
51D
  8
LAYER_1
  0
POLYLINE
  5
A8
  8
LAYER_1
 66
     1
 10
0.0
 20
0.0
 30
0.0
 70
     1
  0
VERTEX
  5
1E7
  8
LAYER_1
 10
4277.310026601713
 20
1463.79186478214
 30
0.0
 42
0.4142135623730951
  0
VERTEX
  5
1E8
  8
LAYER_1
 10
4278.929776614845
 20
1462.172114769008
 30
0.0
 42
0.4142135623730951
  0
VERTEX
  5
1E9
  8
LAYER_1
 10
4280.549526627977
 20
1463.79186478214
 30
0.0
 42
0.4142135623730951
  0
VERTEX
  5
1EA
  8
LAYER_1
 10
4278.929776614845
 20
1465.411614795271
 30
0.0
 42
0.4142135623730951
  0
SEQEND
  5
51E
  8
LAYER_1
  0
POLYLINE
  5
A9
  8
LAYER_1
 66
     1
 10
0.0
 20
0.0
 30
0.0
 70
     1
  0
VERTEX
  5
1EB
  8
LAYER_1
 10
4277.310026601713
 20
1519.281365232004
 30
0.0
 42
0.4142135623730951
  0
VERTEX
  5
1EC
  8
LAYER_1
 10
4278.929776614845
 20
1517.661615218873
 30
0.0
 42
0.4142135623730951
  0
VERTEX
  5
1ED
  8
LAYER_1
 10
4280.549526627977
 20
1519.281365232004
 30
0.0
 42
0.4142135623730951
  0
VERTEX
  5
1EE
  8
LAYER_1
 10
4278.929776614845
 20
1520.901115245136
 30
0.0
 42
0.4142135623730951
  0
SEQEND
  5
51F
  8
LAYER_1
  0
POLYLINE
  5
AA
  8
LAYER_1
 66
     1
 10
0.0
 20
0.0
 30
0.0
 70
     1
  0
VERTEX
  5
1EF
  8
LAYER_1
 10
4277.310026601713
 20
1574.770865681869
 30
0.0
 42
0.4142135623730951
  0
VERTEX
  5
1F0
  8
LAYER_1
 10
4278.929776614845
 20
1573.151115668737
 30
0.0
 42
0.4142135623730951
  0
VERTEX
  5
1F1
  8
LAYER_1
 10
4280.549526627977
 20
1574.770865681869
 30
0.0
 42
0.4142135623730951
  0
VERTEX
  5
1F2
  8
LAYER_1
 10
4278.929776614845
 20
1576.390615695001
 30
0.0
 42
0.4142135623730951
  0
SEQEND
  5
520
  8
LAYER_1
  0
POLYLINE
  5
AB
  8
LAYER_1
 66
     1
 10
0.0
 20
0.0
 30
0.0
 70
     1
  0
VERTEX
  5
1F3
  8
LAYER_1
 10
4277.310026601713
 20
1630.260366131733
 30
0.0
 42
0.4142135623730951
  0
VERTEX
  5
1F4
  8
LAYER_1
 10
4278.929776614845
 20
1628.640616118602
 30
0.0
 42
0.4142135623730951
  0
VERTEX
  5
1F5
  8
LAYER_1
 10
4280.549526627977
 20
1630.260366131733
 30
0.0
 42
0.4142135623730951
  0
VERTEX
  5
1F6
  8
LAYER_1
 10
4278.929776614845
 20
1631.880116144865
 30
0.0
 42
0.4142135623730951
  0
SEQEND
  5
521
  8
LAYER_1
  0
POLYLINE
  5
AC
  8
LAYER_1
 66
     1
 10
0.0
 20
0.0
 30
0.0
 70
     1
  0
VERTEX
  5
1F7
  8
LAYER_1
 10
4277.310026601713
 20
1685.749866581599
 30
0.0
 42
0.4142135623730951
  0
VERTEX
  5
1F8
  8
LAYER_1
 10
4278.929776614845
 20
1684.130116568467
 30
0.0
 42
0.4142135623730951
  0
VERTEX
  5
1F9
  8
LAYER_1
 10
4280.549526627977
 20
1685.749866581599
 30
0.0
 42
0.4142135623730951
  0
VERTEX
  5
1FA
  8
LAYER_1
 10
4278.929776614845
 20
1687.369616594729
 30
0.0
 42
0.4142135623730951
  0
SEQEND
  5
522
  8
LAYER_1
  0
POLYLINE
  5
AD
  8
LAYER_1
 66
     1
 10
0.0
 20
0.0
 30
0.0
 70
     1
  0
VERTEX
  5
1FB
  8
LAYER_1
 10
4277.310026601713
 20
1741.239367031463
 30
0.0
 42
0.4142135623730951
  0
VERTEX
  5
1FC
  8
LAYER_1
 10
4278.929776614845
 20
1739.619617018331
 30
0.0
 42
0.4142135623730951
  0
VERTEX
  5
1FD
  8
LAYER_1
 10
4280.549526627977
 20
1741.239367031463
 30
0.0
 42
0.4142135623730951
  0
VERTEX
  5
1FE
  8
LAYER_1
 10
4278.929776614845
 20
1742.859117044594
 30
0.0
 42
0.4142135623730951
  0
SEQEND
  5
523
  8
LAYER_1
  0
POLYLINE
  5
AE
  8
LAYER_1
 66
     1
 10
0.0
 20
0.0
 30
0.0
 70
     1
  0
VERTEX
  5
1FF
  8
LAYER_1
 10
4277.310026601713
 20
1796.728867481328
 30
0.0
 42
0.4142135623730951
  0
VERTEX
  5
200
  8
LAYER_1
 10
4278.929776614845
 20
1795.109117468196
 30
0.0
 42
0.4142135623730951
  0
VERTEX
  5
201
  8
LAYER_1
 10
4280.549526627977
 20
1796.728867481328
 30
0.0
 42
0.4142135623730951
  0
VERTEX
  5
202
  8
LAYER_1
 10
4278.929776614845
 20
1798.348617494458
 30
0.0
 42
0.4142135623730951
  0
SEQEND
  5
524
  8
LAYER_1
  0
POLYLINE
  5
AF
  8
LAYER_1
 66
     1
 10
0.0
 20
0.0
 30
0.0
 70
     1
  0
VERTEX
  5
203
  8
LAYER_1
 10
4277.310026601713
 20
1852.218367931192
 30
0.0
 42
0.4142135623730951
  0
VERTEX
  5
204
  8
LAYER_1
 10
4278.929776614845
 20
1850.59861791806
 30
0.0
 42
0.4142135623730951
  0
VERTEX
  5
205
  8
LAYER_1
 10
4280.549526627977
 20
1852.218367931192
 30
0.0
 42
0.4142135623730951
  0
VERTEX
  5
206
  8
LAYER_1
 10
4278.929776614845
 20
1853.838117944323
 30
0.0
 42
0.4142135623730951
  0
SEQEND
  5
525
  8
LAYER_1
  0
POLYLINE
  5
B0
  8
LAYER_1
 66
     1
 10
0.0
 20
0.0
 30
0.0
 70
     1
  0
VERTEX
  5
207
  8
LAYER_1
 10
4047.482883488436
 20
1305.47037031084
 30
0.0
 42
0.4142135623730951
  0
VERTEX
  5
208
  8
LAYER_1
 10
4049.102633501568
 20
1303.850620297709
 30
0.0
 42
0.4142135623730951
  0
VERTEX
  5
209
  8
LAYER_1
 10
4050.7223835147
 20
1305.47037031084
 30
0.0
 42
0.4142135623730951
  0
VERTEX
  5
20A
  8
LAYER_1
 10
4049.102633501568
 20
1307.090120323971
 30
0.0
 42
0.4142135623730951
  0
SEQEND
  5
526
  8
LAYER_1
  0
POLYLINE
  5
B1
  8
LAYER_1
 66
     1
 10
0.0
 20
0.0
 30
0.0
 70
     1
  0
VERTEX
  5
20B
  8
LAYER_1
 10
4047.482883488436
 20
1416.449371210569
 30
0.0
 42
0.4142135623730951
  0
VERTEX
  5
20C
  8
LAYER_1
 10
4049.102633501568
 20
1414.829621197438
 30
0.0
 42
0.4142135623730951
  0
VERTEX
  5
20D
  8
LAYER_1
 10
4050.7223835147
 20
1416.449371210569
 30
0.0
 42
0.4142135623730951
  0
VERTEX
  5
20E
  8
LAYER_1
 10
4049.102633501568
 20
1418.069121223701
 30
0.0
 42
0.4142135623730951
  0
SEQEND
  5
527
  8
LAYER_1
  0
POLYLINE
  5
B2
  8
LAYER_1
 66
     1
 10
0.0
 20
0.0
 30
0.0
 70
     1
  0
VERTEX
  5
20F
  8
LAYER_1
 10
4047.482883488436
 20
1471.938871660433
 30
0.0
 42
0.4142135623730951
  0
VERTEX
  5
210
  8
LAYER_1
 10
4049.102633501568
 20
1470.319121647302
 30
0.0
 42
0.4142135623730951
  0
VERTEX
  5
211
  8
LAYER_1
 10
4050.7223835147
 20
1471.938871660433
 30
0.0
 42
0.4142135623730951
  0
VERTEX
  5
212
  8
LAYER_1
 10
4049.102633501568
 20
1473.558621673566
 30
0.0
 42
0.4142135623730951
  0
SEQEND
  5
528
  8
LAYER_1
  0
POLYLINE
  5
B3
  8
LAYER_1
 66
     1
 10
0.0
 20
0.0
 30
0.0
 70
     1
  0
VERTEX
  5
213
  8
LAYER_1
 10
4047.482883488436
 20
1527.428372110297
 30
0.0
 42
0.4142135623730951
  0
VERTEX
  5
214
  8
LAYER_1
 10
4049.102633501568
 20
1525.808622097167
 30
0.0
 42
0.4142135623730951
  0
VERTEX
  5
215
  8
LAYER_1
 10
4050.7223835147
 20
1527.428372110297
 30
0.0
 42
0.4142135623730951
  0
VERTEX
  5
216
  8
LAYER_1
 10
4049.102633501568
 20
1529.048122123429
 30
0.0
 42
0.4142135623730951
  0
SEQEND
  5
529
  8
LAYER_1
  0
POLYLINE
  5
B4
  8
LAYER_1
 66
     1
 10
0.0
 20
0.0
 30
0.0
 70
     1
  0
VERTEX
  5
217
  8
LAYER_1
 10
4047.482883488436
 20
1582.917872560163
 30
0.0
 42
0.4142135623730951
  0
VERTEX
  5
218
  8
LAYER_1
 10
4049.102633501568
 20
1581.298122547031
 30
0.0
 42
0.4142135623730951
  0
VERTEX
  5
219
  8
LAYER_1
 10
4050.7223835147
 20
1582.917872560163
 30
0.0
 42
0.4142135623730951
  0
VERTEX
  5
21A
  8
LAYER_1
 10
4049.102633501568
 20
1584.537622573294
 30
0.0
 42
0.4142135623730951
  0
SEQEND
  5
52A
  8
LAYER_1
  0
POLYLINE
  5
B5
  8
LAYER_1
 66
     1
 10
0.0
 20
0.0
 30
0.0
 70
     1
  0
VERTEX
  5
21B
  8
LAYER_1
 10
4047.482883488436
 20
1638.407373010027
 30
0.0
 42
0.4142135623730951
  0
VERTEX
  5
21C
  8
LAYER_1
 10
4049.102633501568
 20
1636.787622996895
 30
0.0
 42
0.4142135623730951
  0
VERTEX
  5
21D
  8
LAYER_1
 10
4050.7223835147
 20
1638.407373010027
 30
0.0
 42
0.4142135623730951
  0
VERTEX
  5
21E
  8
LAYER_1
 10
4049.102633501568
 20
1640.027123023159
 30
0.0
 42
0.4142135623730951
  0
SEQEND
  5
52B
  8
LAYER_1
  0
POLYLINE
  5
B6
  8
LAYER_1
 66
     1
 10
0.0
 20
0.0
 30
0.0
 70
     1
  0
VERTEX
  5
21F
  8
LAYER_1
 10
4047.482883488436
 20
1693.896873459892
 30
0.0
 42
0.4142135623730951
  0
VERTEX
  5
220
  8
LAYER_1
 10
4049.102633501568
 20
1692.27712344676
 30
0.0
 42
0.4142135623730951
  0
VERTEX
  5
221
  8
LAYER_1
 10
4050.7223835147
 20
1693.896873459892
 30
0.0
 42
0.4142135623730951
  0
VERTEX
  5
222
  8
LAYER_1
 10
4049.102633501568
 20
1695.516623473023
 30
0.0
 42
0.4142135623730951
  0
SEQEND
  5
52C
  8
LAYER_1
  0
POLYLINE
  5
B7
  8
LAYER_1
 66
     1
 10
0.0
 20
0.0
 30
0.0
 70
     1
  0
VERTEX
  5
223
  8
LAYER_1
 10
4047.482883488436
 20
1749.386373909756
 30
0.0
 42
0.4142135623730951
  0
VERTEX
  5
224
  8
LAYER_1
 10
4049.102633501568
 20
1747.766623896625
 30
0.0
 42
0.4142135623730951
  0
VERTEX
  5
225
  8
LAYER_1
 10
4050.7223835147
 20
1749.386373909756
 30
0.0
 42
0.4142135623730951
  0
VERTEX
  5
226
  8
LAYER_1
 10
4049.102633501568
 20
1751.006123922888
 30
0.0
 42
0.4142135623730951
  0
SEQEND
  5
52D
  8
LAYER_1
  0
POLYLINE
  5
B8
  8
LAYER_1
 66
     1
 10
0.0
 20
0.0
 30
0.0
 70
     1
  0
VERTEX
  5
227
  8
LAYER_1
 10
4047.482883488436
 20
1804.875874359621
 30
0.0
 42
0.4142135623730951
  0
VERTEX
  5
228
  8
LAYER_1
 10
4049.102633501568
 20
1803.256124346489
 30
0.0
 42
0.4142135623730951
  0
VERTEX
  5
229
  8
LAYER_1
 10
4050.7223835147
 20
1804.875874359621
 30
0.0
 42
0.4142135623730951
  0
VERTEX
  5
22A
  8
LAYER_1
 10
4049.102633501568
 20
1806.495624372752
 30
0.0
 42
0.4142135623730951
  0
SEQEND
  5
52E
  8
LAYER_1
  0
POLYLINE
  5
B9
  8
LAYER_1
 66
     1
 10
0.0
 20
0.0
 30
0.0
 70
     1
  0
VERTEX
  5
22B
  8
LAYER_1
 10
4047.482883488436
 20
1860.365374809485
 30
0.0
 42
0.4142135623730951
  0
VERTEX
  5
22C
  8
LAYER_1
 10
4049.102633501568
 20
1858.745624796354
 30
0.0
 42
0.4142135623730951
  0
VERTEX
  5
22D
  8
LAYER_1
 10
4050.7223835147
 20
1860.365374809485
 30
0.0
 42
0.4142135623730951
  0
VERTEX
  5
22E
  8
LAYER_1
 10
4049.102633501568
 20
1861.985124822617
 30
0.0
 42
0.4142135623730951
  0
SEQEND
  5
52F
  8
LAYER_1
  0
POLYLINE
  5
BA
  8
LAYER_1
 66
     1
 10
0.0
 20
0.0
 30
0.0
 70
     1
  0
VERTEX
  5
22F
  8
LAYER_1
 10
4047.482883488436
 20
1915.85487525935
 30
0.0
 42
0.4142135623730951
  0
VERTEX
  5
230
  8
LAYER_1
 10
4049.102633501568
 20
1914.235125246219
 30
0.0
 42
0.4142135623730951
  0
VERTEX
  5
231
  8
LAYER_1
 10
4050.7223835147
 20
1915.85487525935
 30
0.0
 42
0.4142135623730951
  0
VERTEX
  5
232
  8
LAYER_1
 10
4049.102633501568
 20
1917.474625272481
 30
0.0
 42
0.4142135623730951
  0
SEQEND
  5
530
  8
LAYER_1
  0
POLYLINE
  5
BB
  8
LAYER_1
 66
     1
 10
0.0
 20
0.0
 30
0.0
 70
     1
  0
VERTEX
  5
233
  8
LAYER_1
 10
4047.482883488436
 20
1971.344375709215
 30
0.0
 42
0.4142135623730951
  0
VERTEX
  5
234
  8
LAYER_1
 10
4049.102633501568
 20
1969.724625696083
 30
0.0
 42
0.4142135623730951
  0
VERTEX
  5
235
  8
LAYER_1
 10
4050.7223835147
 20
1971.344375709215
 30
0.0
 42
0.4142135623730951
  0
VERTEX
  5
236
  8
LAYER_1
 10
4049.102633501568
 20
1972.964125722346
 30
0.0
 42
0.4142135623730951
  0
SEQEND
  5
531
  8
LAYER_1
  0
POLYLINE
  5
BC
  8
LAYER_1
 66
     1
 10
0.0
 20
0.0
 30
0.0
 70
     1
  0
VERTEX
  5
237
  8
LAYER_1
 10
3681.732880523227
 20
1305.47037031084
 30
0.0
 42
0.4142135623730951
  0
VERTEX
  5
238
  8
LAYER_1
 10
3683.352630536359
 20
1303.850620297709
 30
0.0
 42
0.4142135623730951
  0
VERTEX
  5
239
  8
LAYER_1
 10
3684.972380549491
 20
1305.47037031084
 30
0.0
 42
0.4142135623730951
  0
VERTEX
  5
23A
  8
LAYER_1
 10
3683.352630536359
 20
1307.090120323971
 30
0.0
 42
0.4142135623730951
  0
SEQEND
  5
532
  8
LAYER_1
  0
POLYLINE
  5
BD
  8
LAYER_1
 66
     1
 10
0.0
 20
0.0
 30
0.0
 70
     1
  0
VERTEX
  5
23B
  8
LAYER_1
 10
3681.732880523227
 20
1416.449371210569
 30
0.0
 42
0.4142135623730951
  0
VERTEX
  5
23C
  8
LAYER_1
 10
3683.352630536359
 20
1414.829621197438
 30
0.0
 42
0.4142135623730951
  0
VERTEX
  5
23D
  8
LAYER_1
 10
3684.972380549491
 20
1416.449371210569
 30
0.0
 42
0.4142135623730951
  0
VERTEX
  5
23E
  8
LAYER_1
 10
3683.352630536359
 20
1418.069121223701
 30
0.0
 42
0.4142135623730951
  0
SEQEND
  5
533
  8
LAYER_1
  0
POLYLINE
  5
BE
  8
LAYER_1
 66
     1
 10
0.0
 20
0.0
 30
0.0
 70
     1
  0
VERTEX
  5
23F
  8
LAYER_1
 10
3681.732880523227
 20
1471.938871660433
 30
0.0
 42
0.4142135623730951
  0
VERTEX
  5
240
  8
LAYER_1
 10
3683.352630536359
 20
1470.319121647302
 30
0.0
 42
0.4142135623730951
  0
VERTEX
  5
241
  8
LAYER_1
 10
3684.972380549491
 20
1471.938871660433
 30
0.0
 42
0.4142135623730951
  0
VERTEX
  5
242
  8
LAYER_1
 10
3683.352630536359
 20
1473.558621673566
 30
0.0
 42
0.4142135623730951
  0
SEQEND
  5
534
  8
LAYER_1
  0
POLYLINE
  5
BF
  8
LAYER_1
 66
     1
 10
0.0
 20
0.0
 30
0.0
 70
     1
  0
VERTEX
  5
243
  8
LAYER_1
 10
3681.732880523227
 20
1527.428372110297
 30
0.0
 42
0.4142135623730951
  0
VERTEX
  5
244
  8
LAYER_1
 10
3683.352630536359
 20
1525.808622097167
 30
0.0
 42
0.4142135623730951
  0
VERTEX
  5
245
  8
LAYER_1
 10
3684.972380549491
 20
1527.428372110297
 30
0.0
 42
0.4142135623730951
  0
VERTEX
  5
246
  8
LAYER_1
 10
3683.352630536359
 20
1529.048122123429
 30
0.0
 42
0.4142135623730951
  0
SEQEND
  5
535
  8
LAYER_1
  0
POLYLINE
  5
C0
  8
LAYER_1
 66
     1
 10
0.0
 20
0.0
 30
0.0
 70
     1
  0
VERTEX
  5
247
  8
LAYER_1
 10
3681.732880523227
 20
1582.917872560163
 30
0.0
 42
0.4142135623730951
  0
VERTEX
  5
248
  8
LAYER_1
 10
3683.352630536359
 20
1581.298122547031
 30
0.0
 42
0.4142135623730951
  0
VERTEX
  5
249
  8
LAYER_1
 10
3684.972380549491
 20
1582.917872560163
 30
0.0
 42
0.4142135623730951
  0
VERTEX
  5
24A
  8
LAYER_1
 10
3683.352630536359
 20
1584.537622573294
 30
0.0
 42
0.4142135623730951
  0
SEQEND
  5
536
  8
LAYER_1
  0
POLYLINE
  5
C1
  8
LAYER_1
 66
     1
 10
0.0
 20
0.0
 30
0.0
 70
     1
  0
VERTEX
  5
24B
  8
LAYER_1
 10
3681.732880523227
 20
1638.407373010027
 30
0.0
 42
0.4142135623730951
  0
VERTEX
  5
24C
  8
LAYER_1
 10
3683.352630536359
 20
1636.787622996895
 30
0.0
 42
0.4142135623730951
  0
VERTEX
  5
24D
  8
LAYER_1
 10
3684.972380549491
 20
1638.407373010027
 30
0.0
 42
0.4142135623730951
  0
VERTEX
  5
24E
  8
LAYER_1
 10
3683.352630536359
 20
1640.027123023159
 30
0.0
 42
0.4142135623730951
  0
SEQEND
  5
537
  8
LAYER_1
  0
POLYLINE
  5
C2
  8
LAYER_1
 66
     1
 10
0.0
 20
0.0
 30
0.0
 70
     1
  0
VERTEX
  5
24F
  8
LAYER_1
 10
3681.732880523227
 20
1693.896873459892
 30
0.0
 42
0.4142135623730951
  0
VERTEX
  5
250
  8
LAYER_1
 10
3683.352630536359
 20
1692.27712344676
 30
0.0
 42
0.4142135623730951
  0
VERTEX
  5
251
  8
LAYER_1
 10
3684.972380549491
 20
1693.896873459892
 30
0.0
 42
0.4142135623730951
  0
VERTEX
  5
252
  8
LAYER_1
 10
3683.352630536359
 20
1695.516623473023
 30
0.0
 42
0.4142135623730951
  0
SEQEND
  5
538
  8
LAYER_1
  0
POLYLINE
  5
C3
  8
LAYER_1
 66
     1
 10
0.0
 20
0.0
 30
0.0
 70
     1
  0
VERTEX
  5
253
  8
LAYER_1
 10
3681.732880523227
 20
1749.386373909756
 30
0.0
 42
0.4142135623730951
  0
VERTEX
  5
254
  8
LAYER_1
 10
3683.352630536359
 20
1747.766623896625
 30
0.0
 42
0.4142135623730951
  0
VERTEX
  5
255
  8
LAYER_1
 10
3684.972380549491
 20
1749.386373909756
 30
0.0
 42
0.4142135623730951
  0
VERTEX
  5
256
  8
LAYER_1
 10
3683.352630536359
 20
1751.006123922888
 30
0.0
 42
0.4142135623730951
  0
SEQEND
  5
539
  8
LAYER_1
  0
POLYLINE
  5
C4
  8
LAYER_1
 66
     1
 10
0.0
 20
0.0
 30
0.0
 70
     1
  0
VERTEX
  5
257
  8
LAYER_1
 10
3681.732880523227
 20
1804.875874359621
 30
0.0
 42
0.4142135623730951
  0
VERTEX
  5
258
  8
LAYER_1
 10
3683.352630536359
 20
1803.256124346489
 30
0.0
 42
0.4142135623730951
  0
VERTEX
  5
259
  8
LAYER_1
 10
3684.972380549491
 20
1804.875874359621
 30
0.0
 42
0.4142135623730951
  0
VERTEX
  5
25A
  8
LAYER_1
 10
3683.352630536359
 20
1806.495624372752
 30
0.0
 42
0.4142135623730951
  0
SEQEND
  5
53A
  8
LAYER_1
  0
POLYLINE
  5
C5
  8
LAYER_1
 66
     1
 10
0.0
 20
0.0
 30
0.0
 70
     1
  0
VERTEX
  5
25B
  8
LAYER_1
 10
3681.732880523227
 20
1860.365374809485
 30
0.0
 42
0.4142135623730951
  0
VERTEX
  5
25C
  8
LAYER_1
 10
3683.352630536359
 20
1858.745624796354
 30
0.0
 42
0.4142135623730951
  0
VERTEX
  5
25D
  8
LAYER_1
 10
3684.972380549491
 20
1860.365374809485
 30
0.0
 42
0.4142135623730951
  0
VERTEX
  5
25E
  8
LAYER_1
 10
3683.352630536359
 20
1861.985124822617
 30
0.0
 42
0.4142135623730951
  0
SEQEND
  5
53B
  8
LAYER_1
  0
POLYLINE
  5
C6
  8
LAYER_1
 66
     1
 10
0.0
 20
0.0
 30
0.0
 70
     1
  0
VERTEX
  5
25F
  8
LAYER_1
 10
3681.732880523227
 20
1915.85487525935
 30
0.0
 42
0.4142135623730951
  0
VERTEX
  5
260
  8
LAYER_1
 10
3683.352630536359
 20
1914.235125246219
 30
0.0
 42
0.4142135623730951
  0
VERTEX
  5
261
  8
LAYER_1
 10
3684.972380549491
 20
1915.85487525935
 30
0.0
 42
0.4142135623730951
  0
VERTEX
  5
262
  8
LAYER_1
 10
3683.352630536359
 20
1917.474625272481
 30
0.0
 42
0.4142135623730951
  0
SEQEND
  5
53C
  8
LAYER_1
  0
POLYLINE
  5
C7
  8
LAYER_1
 66
     1
 10
0.0
 20
0.0
 30
0.0
 70
     1
  0
VERTEX
  5
263
  8
LAYER_1
 10
3681.732880523227
 20
1971.344375709215
 30
0.0
 42
0.4142135623730951
  0
VERTEX
  5
264
  8
LAYER_1
 10
3683.352630536359
 20
1969.724625696083
 30
0.0
 42
0.4142135623730951
  0
VERTEX
  5
265
  8
LAYER_1
 10
3684.972380549491
 20
1971.344375709215
 30
0.0
 42
0.4142135623730951
  0
VERTEX
  5
266
  8
LAYER_1
 10
3683.352630536359
 20
1972.964125722346
 30
0.0
 42
0.4142135623730951
  0
SEQEND
  5
53D
  8
LAYER_1
  0
POLYLINE
  5
C8
  8
LAYER_1
 66
     1
 10
0.0
 20
0.0
 30
0.0
 70
     1
  0
VERTEX
  5
267
  8
LAYER_1
 10
2935.786659142307
 20
40.56583098473493
 30
0.0
  0
VERTEX
  5
268
  8
LAYER_1
 10
2935.786659142307
 20
838.9458374573621
 30
0.0
  0
VERTEX
  5
269
  8
LAYER_1
 10
3044.362160022678
 20
838.9458374573621
 30
0.0
  0
VERTEX
  5
26A
  8
LAYER_1
 10
3044.362160022551
 20
835.7063374310985
 30
0.0
  0
VERTEX
  5
26B
  8
LAYER_1
 10
3050.73666007423
 20
835.7063374310985
 30
0.0
  0
VERTEX
  5
26C
  8
LAYER_1
 10
3050.73666007423
 20
838.9458374573621
 30
0.0
  0
VERTEX
  5
26D
  8
LAYER_1
 10
3050.73666007423
 20
857.7558376098586
 30
0.0
  0
VERTEX
  5
26E
  8
LAYER_1
 10
3165.686661006152
 20
857.7558376098586
 30
0.0
  0
VERTEX
  5
26F
  8
LAYER_1
 10
3165.686661006152
 20
838.9458374573621
 30
0.0
  0
VERTEX
  5
270
  8
LAYER_1
 10
3165.686661006152
 20
835.7063374310985
 30
0.0
  0
VERTEX
  5
271
  8
LAYER_1
 10
3172.061161057832
 20
835.7063374310985
 30
0.0
  0
VERTEX
  5
272
  8
LAYER_1
 10
3172.061161057844
 20
838.9458374573621
 30
0.0
  0
VERTEX
  5
273
  8
LAYER_1
 10
3274.262161886353
 20
838.9458374573621
 30
0.0
  0
VERTEX
  5
274
  8
LAYER_1
 10
3274.262161886396
 20
835.7063374310985
 30
0.0
  0
VERTEX
  5
275
  8
LAYER_1
 10
3280.636661938076
 20
835.7063374310985
 30
0.0
  0
VERTEX
  5
276
  8
LAYER_1
 10
3280.636661938076
 20
838.9458374573621
 30
0.0
  0
VERTEX
  5
277
  8
LAYER_1
 10
3280.636661938076
 20
857.7558376098586
 30
0.0
  0
VERTEX
  5
278
  8
LAYER_1
 10
3395.586662869998
 20
857.7558376098586
 30
0.0
  0
VERTEX
  5
279
  8
LAYER_1
 10
3395.586662869998
 20
838.9458374573621
 30
0.0
  0
VERTEX
  5
27A
  8
LAYER_1
 10
3395.586662869998
 20
835.7063374310985
 30
0.0
  0
VERTEX
  5
27B
  8
LAYER_1
 10
3401.961162921677
 20
835.7063374310985
 30
0.0
  0
VERTEX
  5
27C
  8
LAYER_1
 10
3401.961162921677
 20
838.9458374573621
 30
0.0
  0
VERTEX
  5
27D
  8
LAYER_1
 10
3510.536663801921
 20
838.9458374573621
 30
0.0
  0
VERTEX
  5
27E
  8
LAYER_1
 10
3510.536663801921
 20
40.56583098473493
 30
0.0
  0
VERTEX
  5
27F
  8
LAYER_1
 10
3401.961162921677
 20
40.56583098473493
 30
0.0
  0
VERTEX
  5
280
  8
LAYER_1
 10
3401.961162921677
 20
43.80533101099854
 30
0.0
  0
VERTEX
  5
281
  8
LAYER_1
 10
3395.586662869998
 20
43.80533101099854
 30
0.0
  0
VERTEX
  5
282
  8
LAYER_1
 10
3395.586662869998
 20
40.56583098473493
 30
0.0
  0
VERTEX
  5
283
  8
LAYER_1
 10
3395.586662869998
 20
21.7558308322391
 30
0.0
  0
VERTEX
  5
284
  8
LAYER_1
 10
3280.636661938076
 20
21.7558308322391
 30
0.0
  0
VERTEX
  5
285
  8
LAYER_1
 10
3280.636661938076
 20
40.56583098473493
 30
0.0
  0
VERTEX
  5
286
  8
LAYER_1
 10
3280.636661938076
 20
43.80533101099854
 30
0.0
  0
VERTEX
  5
287
  8
LAYER_1
 10
3274.262161886396
 20
43.80533101099854
 30
0.0
  0
VERTEX
  5
288
  8
LAYER_1
 10
3274.262161886353
 20
40.56583098473493
 30
0.0
  0
VERTEX
  5
289
  8
LAYER_1
 10
3172.061161057845
 20
40.56583098473493
 30
0.0
  0
VERTEX
  5
28A
  8
LAYER_1
 10
3172.061161057832
 20
43.80533101099854
 30
0.0
  0
VERTEX
  5
28B
  8
LAYER_1
 10
3165.686661006152
 20
43.80533101099854
 30
0.0
  0
VERTEX
  5
28C
  8
LAYER_1
 10
3165.686661006152
 20
40.56583098473493
 30
0.0
  0
VERTEX
  5
28D
  8
LAYER_1
 10
3165.686661006152
 20
21.7558308322391
 30
0.0
  0
VERTEX
  5
28E
  8
LAYER_1
 10
3050.73666007423
 20
21.7558308322391
 30
0.0
  0
VERTEX
  5
28F
  8
LAYER_1
 10
3050.73666007423
 20
40.56583098473493
 30
0.0
  0
VERTEX
  5
290
  8
LAYER_1
 10
3050.73666007423
 20
43.80533101099854
 30
0.0
  0
VERTEX
  5
291
  8
LAYER_1
 10
3044.362160022551
 20
43.80533101099854
 30
0.0
  0
VERTEX
  5
292
  8
LAYER_1
 10
3044.362160022551
 20
40.56583098473493
 30
0.0
  0
SEQEND
  5
53E
  8
LAYER_1
  0
POLYLINE
  5
C9
  8
LAYER_1
 66
     1
 10
0.0
 20
0.0
 30
0.0
 70
     1
  0
VERTEX
  5
293
  8
LAYER_1
 10
4174.429775767642
 20
1243.386464010149
 30
0.0
  0
VERTEX
  5
294
  8
LAYER_1
 10
4174.429775767642
 20
1918.456469483077
 30
0.0
  0
VERTEX
  5
295
  8
LAYER_1
 10
4275.820901589595
 20
1918.456469483077
 30
0.0
  0
VERTEX
  5
296
  8
LAYER_1
 10
4275.820901589641
 20
1915.216969456814
 30
0.0
  0
VERTEX
  5
297
  8
LAYER_1
 10
4282.19540164132
 20
1915.216969456814
 30
0.0
  0
VERTEX
  5
298
  8
LAYER_1
 10
4282.19540164132
 20
1918.456469483077
 30
0.0
  0
VERTEX
  5
299
  8
LAYER_1
 10
4282.19540164132
 20
1937.266469635574
 30
0.0
  0
VERTEX
  5
29A
  8
LAYER_1
 10
4354.039152223771
 20
1937.266469635574
 30
0.0
  0
VERTEX
  5
29B
  8
LAYER_1
 10
4354.039152223771
 20
1918.456469483077
 30
0.0
  0
VERTEX
  5
29C
  8
LAYER_1
 10
4354.039152223771
 20
1915.216969456814
 30
0.0
  0
VERTEX
  5
29D
  8
LAYER_1
 10
4360.413652275451
 20
1915.216969456814
 30
0.0
  0
VERTEX
  5
29E
  8
LAYER_1
 10
4360.413652275451
 20
1918.456469483077
 30
0.0
  0
VERTEX
  5
29F
  8
LAYER_1
 10
4563.195903919384
 20
1918.456469483077
 30
0.0
  0
VERTEX
  5
2A0
  8
LAYER_1
 10
4563.195903919447
 20
1915.216969456814
 30
0.0
  0
VERTEX
  5
2A1
  8
LAYER_1
 10
4569.570403971126
 20
1915.216969456814
 30
0.0
  0
VERTEX
  5
2A2
  8
LAYER_1
 10
4569.570403971126
 20
1918.456469483077
 30
0.0
  0
VERTEX
  5
2A3
  8
LAYER_1
 10
4569.570403971126
 20
1937.266469635574
 30
0.0
  0
VERTEX
  5
2A4
  8
LAYER_1
 10
4641.414154553578
 20
1937.266469635574
 30
0.0
  0
VERTEX
  5
2A5
  8
LAYER_1
 10
4641.414154553578
 20
1918.456469483077
 30
0.0
  0
VERTEX
  5
2A6
  8
LAYER_1
 10
4641.414154553578
 20
1915.216969456814
 30
0.0
  0
VERTEX
  5
2A7
  8
LAYER_1
 10
4647.788654605257
 20
1915.216969456814
 30
0.0
  0
VERTEX
  5
2A8
  8
LAYER_1
 10
4647.78865460524
 20
1918.456469483077
 30
0.0
  0
VERTEX
  5
2A9
  8
LAYER_1
 10
4749.179780427256
 20
1918.456469483077
 30
0.0
  0
VERTEX
  5
2AA
  8
LAYER_1
 10
4749.179780427256
 20
1243.386464010149
 30
0.0
  0
VERTEX
  5
2AB
  8
LAYER_1
 10
4647.788654605257
 20
1243.386464010149
 30
0.0
  0
VERTEX
  5
2AC
  8
LAYER_1
 10
4647.788654605257
 20
1246.625964036413
 30
0.0
  0
VERTEX
  5
2AD
  8
LAYER_1
 10
4641.414154553578
 20
1246.625964036413
 30
0.0
  0
VERTEX
  5
2AE
  8
LAYER_1
 10
4641.414154553578
 20
1243.386464010149
 30
0.0
  0
VERTEX
  5
2AF
  8
LAYER_1
 10
4641.414154553578
 20
1224.576463857652
 30
0.0
  0
VERTEX
  5
2B0
  8
LAYER_1
 10
4569.570403971126
 20
1224.576463857652
 30
0.0
  0
VERTEX
  5
2B1
  8
LAYER_1
 10
4569.570403971126
 20
1243.386464010149
 30
0.0
  0
VERTEX
  5
2B2
  8
LAYER_1
 10
4569.570403971126
 20
1246.625964036413
 30
0.0
  0
VERTEX
  5
2B3
  8
LAYER_1
 10
4563.195903919447
 20
1246.625964036413
 30
0.0
  0
VERTEX
  5
2B4
  8
LAYER_1
 10
4563.195903919385
 20
1243.386464010149
 30
0.0
  0
VERTEX
  5
2B5
  8
LAYER_1
 10
4360.413652275451
 20
1243.386464010149
 30
0.0
  0
VERTEX
  5
2B6
  8
LAYER_1
 10
4360.413652275451
 20
1246.625964036413
 30
0.0
  0
VERTEX
  5
2B7
  8
LAYER_1
 10
4354.039152223771
 20
1246.625964036413
 30
0.0
  0
VERTEX
  5
2B8
  8
LAYER_1
 10
4354.039152223771
 20
1243.386464010149
 30
0.0
  0
VERTEX
  5
2B9
  8
LAYER_1
 10
4354.039152223771
 20
1224.576463857652
 30
0.0
  0
VERTEX
  5
2BA
  8
LAYER_1
 10
4282.19540164132
 20
1224.576463857652
 30
0.0
  0
VERTEX
  5
2BB
  8
LAYER_1
 10
4282.19540164132
 20
1243.386464010149
 30
0.0
  0
VERTEX
  5
2BC
  8
LAYER_1
 10
4282.19540164132
 20
1246.625964036413
 30
0.0
  0
VERTEX
  5
2BD
  8
LAYER_1
 10
4275.820901589641
 20
1246.625964036413
 30
0.0
  0
VERTEX
  5
2BE
  8
LAYER_1
 10
4275.820901589641
 20
1243.386464010149
 30
0.0
  0
SEQEND
  5
53F
  8
LAYER_1
  0
POLYLINE
  5
CA
  8
LAYER_1
 66
     1
 10
0.0
 20
0.0
 30
0.0
 70
     1
  0
VERTEX
  5
2BF
  8
LAYER_1
 10
3578.852629689155
 20
1239.217369773712
 30
0.0
  0
VERTEX
  5
2C0
  8
LAYER_1
 10
3578.852629689155
 20
2037.597376246338
 30
0.0
  0
VERTEX
  5
2C1
  8
LAYER_1
 10
3680.243755511058
 20
2037.597376246338
 30
0.0
  0
VERTEX
  5
2C2
  8
LAYER_1
 10
3680.243755511153
 20
2034.357876220074
 30
0.0
  0
VERTEX
  5
2C3
  8
LAYER_1
 10
3686.618255562833
 20
2034.357876220074
 30
0.0
  0
VERTEX
  5
2C4
  8
LAYER_1
 10
3686.618255562833
 20
2037.597376246338
 30
0.0
  0
VERTEX
  5
2C5
  8
LAYER_1
 10
3686.618255562833
 20
2056.407376398834
 30
0.0
  0
VERTEX
  5
2C6
  8
LAYER_1
 10
3758.462006145284
 20
2056.407376398834
 30
0.0
  0
VERTEX
  5
2C7
  8
LAYER_1
 10
3758.462006145284
 20
2037.597376246338
 30
0.0
  0
VERTEX
  5
2C8
  8
LAYER_1
 10
3758.462006145284
 20
2034.357876220074
 30
0.0
  0
VERTEX
  5
2C9
  8
LAYER_1
 10
3764.836506196964
 20
2034.357876220074
 30
0.0
  0
VERTEX
  5
2CA
  8
LAYER_1
 10
3764.836506196914
 20
2037.597376246338
 30
0.0
  0
VERTEX
  5
2CB
  8
LAYER_1
 10
3967.618757840849
 20
2037.597376246338
 30
0.0
  0
VERTEX
  5
2CC
  8
LAYER_1
 10
3967.61875784096
 20
2034.357876220074
 30
0.0
  0
VERTEX
  5
2CD
  8
LAYER_1
 10
3973.99325789264
 20
2034.357876220074
 30
0.0
  0
VERTEX
  5
2CE
  8
LAYER_1
 10
3973.99325789264
 20
2037.597376246338
 30
0.0
  0
VERTEX
  5
2CF
  8
LAYER_1
 10
3973.99325789264
 20
2056.407376398834
 30
0.0
  0
VERTEX
  5
2D0
  8
LAYER_1
 10
4045.837008475091
 20
2056.407376398834
 30
0.0
  0
VERTEX
  5
2D1
  8
LAYER_1
 10
4045.837008475091
 20
2037.597376246338
 30
0.0
  0
VERTEX
  5
2D2
  8
LAYER_1
 10
4045.837008475091
 20
2034.357876220074
 30
0.0
  0
VERTEX
  5
2D3
  8
LAYER_1
 10
4052.211508526771
 20
2034.357876220074
 30
0.0
  0
VERTEX
  5
2D4
  8
LAYER_1
 10
4052.211508526704
 20
2037.597376246338
 30
0.0
  0
VERTEX
  5
2D5
  8
LAYER_1
 10
4153.602634348768
 20
2037.597376246338
 30
0.0
  0
VERTEX
  5
2D6
  8
LAYER_1
 10
4153.602634348768
 20
1239.217369773712
 30
0.0
  0
VERTEX
  5
2D7
  8
LAYER_1
 10
4052.21150852677
 20
1239.217369773712
 30
0.0
  0
VERTEX
  5
2D8
  8
LAYER_1
 10
4052.21150852677
 20
1242.456869799974
 30
0.0
  0
VERTEX
  5
2D9
  8
LAYER_1
 10
4045.837008475091
 20
1242.456869799974
 30
0.0
  0
VERTEX
  5
2DA
  8
LAYER_1
 10
4045.837008475091
 20
1239.217369773712
 30
0.0
  0
VERTEX
  5
2DB
  8
LAYER_1
 10
4045.837008475091
 20
1220.407369621213
 30
0.0
  0
VERTEX
  5
2DC
  8
LAYER_1
 10
3973.993257892639
 20
1220.407369621213
 30
0.0
  0
VERTEX
  5
2DD
  8
LAYER_1
 10
3973.993257892639
 20
1239.217369773712
 30
0.0
  0
VERTEX
  5
2DE
  8
LAYER_1
 10
3973.993257892639
 20
1242.456869799974
 30
0.0
  0
VERTEX
  5
2DF
  8
LAYER_1
 10
3967.61875784096
 20
1242.456869799974
 30
0.0
  0
VERTEX
  5
2E0
  8
LAYER_1
 10
3967.618757841162
 20
1239.217369773712
 30
0.0
  0
VERTEX
  5
2E1
  8
LAYER_1
 10
3764.836506196913
 20
1239.217369773712
 30
0.0
  0
VERTEX
  5
2E2
  8
LAYER_1
 10
3764.836506196963
 20
1242.456869799974
 30
0.0
  0
VERTEX
  5
2E3
  8
LAYER_1
 10
3758.462006145284
 20
1242.456869799974
 30
0.0
  0
VERTEX
  5
2E4
  8
LAYER_1
 10
3758.462006145284
 20
1239.217369773712
 30
0.0
  0
VERTEX
  5
2E5
  8
LAYER_1
 10
3758.462006145284
 20
1220.407369621213
 30
0.0
  0
VERTEX
  5
2E6
  8
LAYER_1
 10
3686.618255562832
 20
1220.407369621213
 30
0.0
  0
VERTEX
  5
2E7
  8
LAYER_1
 10
3686.618255562832
 20
1239.217369773712
 30
0.0
  0
VERTEX
  5
2E8
  8
LAYER_1
 10
3686.618255562832
 20
1242.456869799974
 30
0.0
  0
VERTEX
  5
2E9
  8
LAYER_1
 10
3680.243755511153
 20
1242.456869799974
 30
0.0
  0
VERTEX
  5
2EA
  8
LAYER_1
 10
3680.243755511153
 20
1239.217369773712
 30
0.0
  0
SEQEND
  5
540
  8
LAYER_1
  0
POLYLINE
  5
CB
  8
LAYER_1
 66
     1
 10
0.0
 20
0.0
 30
0.0
 70
     1
  0
VERTEX
  5
2EB
  8
LAYER_1
 10
3105.599160519011
 20
890.3004256331731
 30
0.0
 42
0.4142135623730951
  0
VERTEX
  5
2EC
  8
LAYER_1
 10
3108.211660540192
 20
887.6879256119926
 30
0.0
 42
0.4142135623730951
  0
VERTEX
  5
2ED
  8
LAYER_1
 10
3110.824160561371
 20
890.3004256331731
 30
0.0
 42
0.4142135623730951
  0
VERTEX
  5
2EE
  8
LAYER_1
 10
3108.211660540192
 20
892.9129256543526
 30
0.0
 42
0.4142135623730951
  0
SEQEND
  5
541
  8
LAYER_1
  0
POLYLINE
  5
CC
  8
LAYER_1
 66
     1
 10
0.0
 20
0.0
 30
0.0
 70
     1
  0
VERTEX
  5
2EF
  8
LAYER_1
 10
3335.499162382857
 20
890.3004256331731
 30
0.0
 42
0.4142135623730951
  0
VERTEX
  5
2F0
  8
LAYER_1
 10
3338.111662404037
 20
887.6879256119926
 30
0.0
 42
0.4142135623730951
  0
VERTEX
  5
2F1
  8
LAYER_1
 10
3340.724162425217
 20
890.3004256331731
 30
0.0
 42
0.4142135623730951
  0
VERTEX
  5
2F2
  8
LAYER_1
 10
3338.111662404037
 20
892.9129256543526
 30
0.0
 42
0.4142135623730951
  0
SEQEND
  5
542
  8
LAYER_1
  0
POLYLINE
  5
CD
  8
LAYER_1
 66
     1
 10
0.0
 20
0.0
 30
0.0
 70
     1
  0
VERTEX
  5
2F3
  8
LAYER_1
 10
3105.599160519011
 20
1707.490432258296
 30
0.0
 42
0.4142135623730951
  0
VERTEX
  5
2F4
  8
LAYER_1
 10
3108.211660540192
 20
1704.877932237116
 30
0.0
 42
0.4142135623730951
  0
VERTEX
  5
2F5
  8
LAYER_1
 10
3110.824160561371
 20
1707.490432258296
 30
0.0
 42
0.4142135623730951
  0
VERTEX
  5
2F6
  8
LAYER_1
 10
3108.211660540192
 20
1710.102932279476
 30
0.0
 42
0.4142135623730951
  0
SEQEND
  5
543
  8
LAYER_1
  0
POLYLINE
  5
CE
  8
LAYER_1
 66
     1
 10
0.0
 20
0.0
 30
0.0
 70
     1
  0
VERTEX
  5
2F7
  8
LAYER_1
 10
3335.499162382857
 20
1707.490432258296
 30
0.0
 42
0.4142135623730951
  0
VERTEX
  5
2F8
  8
LAYER_1
 10
3338.111662404037
 20
1704.877932237116
 30
0.0
 42
0.4142135623730951
  0
VERTEX
  5
2F9
  8
LAYER_1
 10
3340.724162425217
 20
1707.490432258296
 30
0.0
 42
0.4142135623730951
  0
VERTEX
  5
2FA
  8
LAYER_1
 10
3338.111662404037
 20
1710.102932279476
 30
0.0
 42
0.4142135623730951
  0
SEQEND
  5
544
  8
LAYER_1
  0
POLYLINE
  5
CF
  8
LAYER_1
 66
     1
 10
0.0
 20
0.0
 30
0.0
 70
     1
  0
VERTEX
  5
2FB
  8
LAYER_1
 10
3404.416912941587
 20
965.9584262465476
 30
0.0
 42
0.4142135623730951
  0
VERTEX
  5
2FC
  8
LAYER_1
 10
3406.036662954719
 20
964.3386762334155
 30
0.0
 42
0.4142135623730951
  0
VERTEX
  5
2FD
  8
LAYER_1
 10
3407.65641296785
 20
965.9584262465476
 30
0.0
 42
0.4142135623730951
  0
VERTEX
  5
2FE
  8
LAYER_1
 10
3406.036662954719
 20
967.5781762596787
 30
0.0
 42
0.4142135623730951
  0
SEQEND
  5
545
  8
LAYER_1
  0
POLYLINE
  5
D0
  8
LAYER_1
 66
     1
 10
0.0
 20
0.0
 30
0.0
 70
     1
  0
VERTEX
  5
2FF
  8
LAYER_1
 10
3404.416912941587
 20
1076.937427146276
 30
0.0
 42
0.4142135623730951
  0
VERTEX
  5
300
  8
LAYER_1
 10
3406.036662954719
 20
1075.317677133145
 30
0.0
 42
0.4142135623730951
  0
VERTEX
  5
301
  8
LAYER_1
 10
3407.65641296785
 20
1076.937427146276
 30
0.0
 42
0.4142135623730951
  0
VERTEX
  5
302
  8
LAYER_1
 10
3406.036662954719
 20
1078.557177159408
 30
0.0
 42
0.4142135623730951
  0
SEQEND
  5
546
  8
LAYER_1
  0
POLYLINE
  5
D1
  8
LAYER_1
 66
     1
 10
0.0
 20
0.0
 30
0.0
 70
     1
  0
VERTEX
  5
303
  8
LAYER_1
 10
3404.416912941587
 20
1132.42692759614
 30
0.0
 42
0.4142135623730951
  0
VERTEX
  5
304
  8
LAYER_1
 10
3406.036662954719
 20
1130.807177583009
 30
0.0
 42
0.4142135623730951
  0
VERTEX
  5
305
  8
LAYER_1
 10
3407.65641296785
 20
1132.42692759614
 30
0.0
 42
0.4142135623730951
  0
VERTEX
  5
306
  8
LAYER_1
 10
3406.036662954719
 20
1134.046677609272
 30
0.0
 42
0.4142135623730951
  0
SEQEND
  5
547
  8
LAYER_1
  0
POLYLINE
  5
D2
  8
LAYER_1
 66
     1
 10
0.0
 20
0.0
 30
0.0
 70
     1
  0
VERTEX
  5
307
  8
LAYER_1
 10
3404.416912941587
 20
1187.916428046006
 30
0.0
 42
0.4142135623730951
  0
VERTEX
  5
308
  8
LAYER_1
 10
3406.036662954719
 20
1186.296678032874
 30
0.0
 42
0.4142135623730951
  0
VERTEX
  5
309
  8
LAYER_1
 10
3407.65641296785
 20
1187.916428046006
 30
0.0
 42
0.4142135623730951
  0
VERTEX
  5
30A
  8
LAYER_1
 10
3406.036662954719
 20
1189.536178059137
 30
0.0
 42
0.4142135623730951
  0
SEQEND
  5
548
  8
LAYER_1
  0
POLYLINE
  5
D3
  8
LAYER_1
 66
     1
 10
0.0
 20
0.0
 30
0.0
 70
     1
  0
VERTEX
  5
30B
  8
LAYER_1
 10
3404.416912941587
 20
1243.40592849587
 30
0.0
 42
0.4142135623730951
  0
VERTEX
  5
30C
  8
LAYER_1
 10
3406.036662954719
 20
1241.786178482738
 30
0.0
 42
0.4142135623730951
  0
VERTEX
  5
30D
  8
LAYER_1
 10
3407.65641296785
 20
1243.40592849587
 30
0.0
 42
0.4142135623730951
  0
VERTEX
  5
30E
  8
LAYER_1
 10
3406.036662954719
 20
1245.025678509001
 30
0.0
 42
0.4142135623730951
  0
SEQEND
  5
549
  8
LAYER_1
  0
POLYLINE
  5
D4
  8
LAYER_1
 66
     1
 10
0.0
 20
0.0
 30
0.0
 70
     1
  0
VERTEX
  5
30F
  8
LAYER_1
 10
3404.416912941587
 20
1298.895428945734
 30
0.0
 42
0.4142135623730951
  0
VERTEX
  5
310
  8
LAYER_1
 10
3406.036662954719
 20
1297.275678932602
 30
0.0
 42
0.4142135623730951
  0
VERTEX
  5
311
  8
LAYER_1
 10
3407.65641296785
 20
1298.895428945734
 30
0.0
 42
0.4142135623730951
  0
VERTEX
  5
312
  8
LAYER_1
 10
3406.036662954719
 20
1300.515178958866
 30
0.0
 42
0.4142135623730951
  0
SEQEND
  5
54A
  8
LAYER_1
  0
POLYLINE
  5
D5
  8
LAYER_1
 66
     1
 10
0.0
 20
0.0
 30
0.0
 70
     1
  0
VERTEX
  5
313
  8
LAYER_1
 10
3404.416912941587
 20
1354.384929395599
 30
0.0
 42
0.4142135623730951
  0
VERTEX
  5
314
  8
LAYER_1
 10
3406.036662954719
 20
1352.765179382467
 30
0.0
 42
0.4142135623730951
  0
VERTEX
  5
315
  8
LAYER_1
 10
3407.65641296785
 20
1354.384929395599
 30
0.0
 42
0.4142135623730951
  0
VERTEX
  5
316
  8
LAYER_1
 10
3406.036662954719
 20
1356.00467940873
 30
0.0
 42
0.4142135623730951
  0
SEQEND
  5
54B
  8
LAYER_1
  0
POLYLINE
  5
D6
  8
LAYER_1
 66
     1
 10
0.0
 20
0.0
 30
0.0
 70
     1
  0
VERTEX
  5
317
  8
LAYER_1
 10
3404.416912941587
 20
1409.874429845463
 30
0.0
 42
0.4142135623730951
  0
VERTEX
  5
318
  8
LAYER_1
 10
3406.036662954719
 20
1408.254679832332
 30
0.0
 42
0.4142135623730951
  0
VERTEX
  5
319
  8
LAYER_1
 10
3407.65641296785
 20
1409.874429845463
 30
0.0
 42
0.4142135623730951
  0
VERTEX
  5
31A
  8
LAYER_1
 10
3406.036662954719
 20
1411.494179858595
 30
0.0
 42
0.4142135623730951
  0
SEQEND
  5
54C
  8
LAYER_1
  0
POLYLINE
  5
D7
  8
LAYER_1
 66
     1
 10
0.0
 20
0.0
 30
0.0
 70
     1
  0
VERTEX
  5
31B
  8
LAYER_1
 10
3404.416912941587
 20
1465.363930295328
 30
0.0
 42
0.4142135623730951
  0
VERTEX
  5
31C
  8
LAYER_1
 10
3406.036662954719
 20
1463.744180282196
 30
0.0
 42
0.4142135623730951
  0
VERTEX
  5
31D
  8
LAYER_1
 10
3407.65641296785
 20
1465.363930295328
 30
0.0
 42
0.4142135623730951
  0
VERTEX
  5
31E
  8
LAYER_1
 10
3406.036662954719
 20
1466.983680308459
 30
0.0
 42
0.4142135623730951
  0
SEQEND
  5
54D
  8
LAYER_1
  0
POLYLINE
  5
D8
  8
LAYER_1
 66
     1
 10
0.0
 20
0.0
 30
0.0
 70
     1
  0
VERTEX
  5
31F
  8
LAYER_1
 10
3404.416912941587
 20
1520.853430745193
 30
0.0
 42
0.4142135623730951
  0
VERTEX
  5
320
  8
LAYER_1
 10
3406.036662954719
 20
1519.233680732061
 30
0.0
 42
0.4142135623730951
  0
VERTEX
  5
321
  8
LAYER_1
 10
3407.65641296785
 20
1520.853430745193
 30
0.0
 42
0.4142135623730951
  0
VERTEX
  5
322
  8
LAYER_1
 10
3406.036662954719
 20
1522.473180758324
 30
0.0
 42
0.4142135623730951
  0
SEQEND
  5
54E
  8
LAYER_1
  0
POLYLINE
  5
D9
  8
LAYER_1
 66
     1
 10
0.0
 20
0.0
 30
0.0
 70
     1
  0
VERTEX
  5
323
  8
LAYER_1
 10
3404.416912941587
 20
1576.342931195057
 30
0.0
 42
0.4142135623730951
  0
VERTEX
  5
324
  8
LAYER_1
 10
3406.036662954719
 20
1574.723181181925
 30
0.0
 42
0.4142135623730951
  0
VERTEX
  5
325
  8
LAYER_1
 10
3407.65641296785
 20
1576.342931195057
 30
0.0
 42
0.4142135623730951
  0
VERTEX
  5
326
  8
LAYER_1
 10
3406.036662954719
 20
1577.962681208189
 30
0.0
 42
0.4142135623730951
  0
SEQEND
  5
54F
  8
LAYER_1
  0
POLYLINE
  5
DA
  8
LAYER_1
 66
     1
 10
0.0
 20
0.0
 30
0.0
 70
     1
  0
VERTEX
  5
327
  8
LAYER_1
 10
3404.416912941587
 20
1631.832431644921
 30
0.0
 42
0.4142135623730951
  0
VERTEX
  5
328
  8
LAYER_1
 10
3406.036662954719
 20
1630.21268163179
 30
0.0
 42
0.4142135623730951
  0
VERTEX
  5
329
  8
LAYER_1
 10
3407.65641296785
 20
1631.832431644921
 30
0.0
 42
0.4142135623730951
  0
VERTEX
  5
32A
  8
LAYER_1
 10
3406.036662954719
 20
1633.452181658053
 30
0.0
 42
0.4142135623730951
  0
SEQEND
  5
550
  8
LAYER_1
  0
POLYLINE
  5
DB
  8
LAYER_1
 66
     1
 10
0.0
 20
0.0
 30
0.0
 70
     1
  0
VERTEX
  5
32B
  8
LAYER_1
 10
3038.666909976378
 20
965.9584262465476
 30
0.0
 42
0.4142135623730951
  0
VERTEX
  5
32C
  8
LAYER_1
 10
3040.28665998951
 20
964.3386762334155
 30
0.0
 42
0.4142135623730951
  0
VERTEX
  5
32D
  8
LAYER_1
 10
3041.906410002642
 20
965.9584262465476
 30
0.0
 42
0.4142135623730951
  0
VERTEX
  5
32E
  8
LAYER_1
 10
3040.28665998951
 20
967.5781762596787
 30
0.0
 42
0.4142135623730951
  0
SEQEND
  5
551
  8
LAYER_1
  0
POLYLINE
  5
DC
  8
LAYER_1
 66
     1
 10
0.0
 20
0.0
 30
0.0
 70
     1
  0
VERTEX
  5
32F
  8
LAYER_1
 10
3038.666909976378
 20
1076.937427146276
 30
0.0
 42
0.4142135623730951
  0
VERTEX
  5
330
  8
LAYER_1
 10
3040.28665998951
 20
1075.317677133145
 30
0.0
 42
0.4142135623730951
  0
VERTEX
  5
331
  8
LAYER_1
 10
3041.906410002642
 20
1076.937427146276
 30
0.0
 42
0.4142135623730951
  0
VERTEX
  5
332
  8
LAYER_1
 10
3040.28665998951
 20
1078.557177159408
 30
0.0
 42
0.4142135623730951
  0
SEQEND
  5
552
  8
LAYER_1
  0
POLYLINE
  5
DD
  8
LAYER_1
 66
     1
 10
0.0
 20
0.0
 30
0.0
 70
     1
  0
VERTEX
  5
333
  8
LAYER_1
 10
3038.666909976378
 20
1132.42692759614
 30
0.0
 42
0.4142135623730951
  0
VERTEX
  5
334
  8
LAYER_1
 10
3040.28665998951
 20
1130.807177583009
 30
0.0
 42
0.4142135623730951
  0
VERTEX
  5
335
  8
LAYER_1
 10
3041.906410002642
 20
1132.42692759614
 30
0.0
 42
0.4142135623730951
  0
VERTEX
  5
336
  8
LAYER_1
 10
3040.28665998951
 20
1134.046677609272
 30
0.0
 42
0.4142135623730951
  0
SEQEND
  5
553
  8
LAYER_1
  0
POLYLINE
  5
DE
  8
LAYER_1
 66
     1
 10
0.0
 20
0.0
 30
0.0
 70
     1
  0
VERTEX
  5
337
  8
LAYER_1
 10
3038.666909976378
 20
1187.916428046006
 30
0.0
 42
0.4142135623730951
  0
VERTEX
  5
338
  8
LAYER_1
 10
3040.28665998951
 20
1186.296678032874
 30
0.0
 42
0.4142135623730951
  0
VERTEX
  5
339
  8
LAYER_1
 10
3041.906410002642
 20
1187.916428046006
 30
0.0
 42
0.4142135623730951
  0
VERTEX
  5
33A
  8
LAYER_1
 10
3040.28665998951
 20
1189.536178059137
 30
0.0
 42
0.4142135623730951
  0
SEQEND
  5
554
  8
LAYER_1
  0
POLYLINE
  5
DF
  8
LAYER_1
 66
     1
 10
0.0
 20
0.0
 30
0.0
 70
     1
  0
VERTEX
  5
33B
  8
LAYER_1
 10
3038.666909976378
 20
1243.40592849587
 30
0.0
 42
0.4142135623730951
  0
VERTEX
  5
33C
  8
LAYER_1
 10
3040.28665998951
 20
1241.786178482738
 30
0.0
 42
0.4142135623730951
  0
VERTEX
  5
33D
  8
LAYER_1
 10
3041.906410002642
 20
1243.40592849587
 30
0.0
 42
0.4142135623730951
  0
VERTEX
  5
33E
  8
LAYER_1
 10
3040.28665998951
 20
1245.025678509001
 30
0.0
 42
0.4142135623730951
  0
SEQEND
  5
555
  8
LAYER_1
  0
POLYLINE
  5
E0
  8
LAYER_1
 66
     1
 10
0.0
 20
0.0
 30
0.0
 70
     1
  0
VERTEX
  5
33F
  8
LAYER_1
 10
3038.666909976378
 20
1298.895428945734
 30
0.0
 42
0.4142135623730951
  0
VERTEX
  5
340
  8
LAYER_1
 10
3040.28665998951
 20
1297.275678932602
 30
0.0
 42
0.4142135623730951
  0
VERTEX
  5
341
  8
LAYER_1
 10
3041.906410002642
 20
1298.895428945734
 30
0.0
 42
0.4142135623730951
  0
VERTEX
  5
342
  8
LAYER_1
 10
3040.28665998951
 20
1300.515178958866
 30
0.0
 42
0.4142135623730951
  0
SEQEND
  5
556
  8
LAYER_1
  0
POLYLINE
  5
E1
  8
LAYER_1
 66
     1
 10
0.0
 20
0.0
 30
0.0
 70
     1
  0
VERTEX
  5
343
  8
LAYER_1
 10
3038.666909976378
 20
1354.384929395599
 30
0.0
 42
0.4142135623730951
  0
VERTEX
  5
344
  8
LAYER_1
 10
3040.28665998951
 20
1352.765179382467
 30
0.0
 42
0.4142135623730951
  0
VERTEX
  5
345
  8
LAYER_1
 10
3041.906410002642
 20
1354.384929395599
 30
0.0
 42
0.4142135623730951
  0
VERTEX
  5
346
  8
LAYER_1
 10
3040.28665998951
 20
1356.00467940873
 30
0.0
 42
0.4142135623730951
  0
SEQEND
  5
557
  8
LAYER_1
  0
POLYLINE
  5
E2
  8
LAYER_1
 66
     1
 10
0.0
 20
0.0
 30
0.0
 70
     1
  0
VERTEX
  5
347
  8
LAYER_1
 10
3038.666909976378
 20
1409.874429845463
 30
0.0
 42
0.4142135623730951
  0
VERTEX
  5
348
  8
LAYER_1
 10
3040.28665998951
 20
1408.254679832332
 30
0.0
 42
0.4142135623730951
  0
VERTEX
  5
349
  8
LAYER_1
 10
3041.906410002642
 20
1409.874429845463
 30
0.0
 42
0.4142135623730951
  0
VERTEX
  5
34A
  8
LAYER_1
 10
3040.28665998951
 20
1411.494179858595
 30
0.0
 42
0.4142135623730951
  0
SEQEND
  5
558
  8
LAYER_1
  0
POLYLINE
  5
E3
  8
LAYER_1
 66
     1
 10
0.0
 20
0.0
 30
0.0
 70
     1
  0
VERTEX
  5
34B
  8
LAYER_1
 10
3038.666909976378
 20
1465.363930295328
 30
0.0
 42
0.4142135623730951
  0
VERTEX
  5
34C
  8
LAYER_1
 10
3040.28665998951
 20
1463.744180282196
 30
0.0
 42
0.4142135623730951
  0
VERTEX
  5
34D
  8
LAYER_1
 10
3041.906410002642
 20
1465.363930295328
 30
0.0
 42
0.4142135623730951
  0
VERTEX
  5
34E
  8
LAYER_1
 10
3040.28665998951
 20
1466.983680308459
 30
0.0
 42
0.4142135623730951
  0
SEQEND
  5
559
  8
LAYER_1
  0
POLYLINE
  5
E4
  8
LAYER_1
 66
     1
 10
0.0
 20
0.0
 30
0.0
 70
     1
  0
VERTEX
  5
34F
  8
LAYER_1
 10
3038.666909976378
 20
1520.853430745193
 30
0.0
 42
0.4142135623730951
  0
VERTEX
  5
350
  8
LAYER_1
 10
3040.28665998951
 20
1519.233680732061
 30
0.0
 42
0.4142135623730951
  0
VERTEX
  5
351
  8
LAYER_1
 10
3041.906410002642
 20
1520.853430745193
 30
0.0
 42
0.4142135623730951
  0
VERTEX
  5
352
  8
LAYER_1
 10
3040.28665998951
 20
1522.473180758324
 30
0.0
 42
0.4142135623730951
  0
SEQEND
  5
55A
  8
LAYER_1
  0
POLYLINE
  5
E5
  8
LAYER_1
 66
     1
 10
0.0
 20
0.0
 30
0.0
 70
     1
  0
VERTEX
  5
353
  8
LAYER_1
 10
3038.666909976378
 20
1576.342931195057
 30
0.0
 42
0.4142135623730951
  0
VERTEX
  5
354
  8
LAYER_1
 10
3040.28665998951
 20
1574.723181181925
 30
0.0
 42
0.4142135623730951
  0
VERTEX
  5
355
  8
LAYER_1
 10
3041.906410002642
 20
1576.342931195057
 30
0.0
 42
0.4142135623730951
  0
VERTEX
  5
356
  8
LAYER_1
 10
3040.28665998951
 20
1577.962681208189
 30
0.0
 42
0.4142135623730951
  0
SEQEND
  5
55B
  8
LAYER_1
  0
POLYLINE
  5
E6
  8
LAYER_1
 66
     1
 10
0.0
 20
0.0
 30
0.0
 70
     1
  0
VERTEX
  5
357
  8
LAYER_1
 10
3038.666909976378
 20
1631.832431644921
 30
0.0
 42
0.4142135623730951
  0
VERTEX
  5
358
  8
LAYER_1
 10
3040.28665998951
 20
1630.21268163179
 30
0.0
 42
0.4142135623730951
  0
VERTEX
  5
359
  8
LAYER_1
 10
3041.906410002642
 20
1631.832431644921
 30
0.0
 42
0.4142135623730951
  0
VERTEX
  5
35A
  8
LAYER_1
 10
3040.28665998951
 20
1633.452181658053
 30
0.0
 42
0.4142135623730951
  0
SEQEND
  5
55C
  8
LAYER_1
  0
POLYLINE
  5
E7
  8
LAYER_1
 66
     1
 10
0.0
 20
0.0
 30
0.0
 70
     1
  0
VERTEX
  5
35B
  8
LAYER_1
 10
2935.786659142307
 20
899.7054257094212
 30
0.0
  0
VERTEX
  5
35C
  8
LAYER_1
 10
2935.786659142307
 20
1698.085432182048
 30
0.0
  0
VERTEX
  5
35D
  8
LAYER_1
 10
3044.3621600226
 20
1698.085432182048
 30
0.0
  0
VERTEX
  5
35E
  8
LAYER_1
 10
3044.362160022552
 20
1694.845932155784
 30
0.0
  0
VERTEX
  5
35F
  8
LAYER_1
 10
3050.73666007423
 20
1694.845932155784
 30
0.0
  0
VERTEX
  5
360
  8
LAYER_1
 10
3050.73666007423
 20
1698.085432182048
 30
0.0
  0
VERTEX
  5
361
  8
LAYER_1
 10
3050.73666007423
 20
1716.895432334544
 30
0.0
  0
VERTEX
  5
362
  8
LAYER_1
 10
3165.686661006152
 20
1716.895432334544
 30
0.0
  0
VERTEX
  5
363
  8
LAYER_1
 10
3165.686661006152
 20
1698.085432182048
 30
0.0
  0
VERTEX
  5
364
  8
LAYER_1
 10
3165.686661006152
 20
1694.845932155784
 30
0.0
  0
VERTEX
  5
365
  8
LAYER_1
 10
3172.061161057832
 20
1694.845932155784
 30
0.0
  0
VERTEX
  5
366
  8
LAYER_1
 10
3172.061161057845
 20
1698.085432182048
 30
0.0
  0
VERTEX
  5
367
  8
LAYER_1
 10
3274.262161886353
 20
1698.085432182048
 30
0.0
  0
VERTEX
  5
368
  8
LAYER_1
 10
3274.262161886396
 20
1694.845932155784
 30
0.0
  0
VERTEX
  5
369
  8
LAYER_1
 10
3280.636661938076
 20
1694.845932155784
 30
0.0
  0
VERTEX
  5
36A
  8
LAYER_1
 10
3280.636661938076
 20
1698.085432182048
 30
0.0
  0
VERTEX
  5
36B
  8
LAYER_1
 10
3280.636661938076
 20
1716.895432334544
 30
0.0
  0
VERTEX
  5
36C
  8
LAYER_1
 10
3395.586662869998
 20
1716.895432334544
 30
0.0
  0
VERTEX
  5
36D
  8
LAYER_1
 10
3395.586662869998
 20
1698.085432182048
 30
0.0
  0
VERTEX
  5
36E
  8
LAYER_1
 10
3395.586662869998
 20
1694.845932155784
 30
0.0
  0
VERTEX
  5
36F
  8
LAYER_1
 10
3401.961162921677
 20
1694.845932155784
 30
0.0
  0
VERTEX
  5
370
  8
LAYER_1
 10
3401.961162921677
 20
1698.085432182048
 30
0.0
  0
VERTEX
  5
371
  8
LAYER_1
 10
3510.536663801921
 20
1698.085432182048
 30
0.0
  0
VERTEX
  5
372
  8
LAYER_1
 10
3510.536663801921
 20
899.7054257094212
 30
0.0
  0
VERTEX
  5
373
  8
LAYER_1
 10
3401.961162921677
 20
899.7054257094212
 30
0.0
  0
VERTEX
  5
374
  8
LAYER_1
 10
3401.961162921677
 20
902.9449257356844
 30
0.0
  0
VERTEX
  5
375
  8
LAYER_1
 10
3395.586662869998
 20
902.9449257356844
 30
0.0
  0
VERTEX
  5
376
  8
LAYER_1
 10
3395.586662869998
 20
899.7054257094212
 30
0.0
  0
VERTEX
  5
377
  8
LAYER_1
 10
3395.586662869998
 20
880.8954255569249
 30
0.0
  0
VERTEX
  5
378
  8
LAYER_1
 10
3280.636661938076
 20
880.8954255569249
 30
0.0
  0
VERTEX
  5
379
  8
LAYER_1
 10
3280.636661938076
 20
899.7054257094212
 30
0.0
  0
VERTEX
  5
37A
  8
LAYER_1
 10
3280.636661938076
 20
902.9449257356844
 30
0.0
  0
VERTEX
  5
37B
  8
LAYER_1
 10
3274.262161886396
 20
902.9449257356844
 30
0.0
  0
VERTEX
  5
37C
  8
LAYER_1
 10
3274.262161886353
 20
899.7054257094212
 30
0.0
  0
VERTEX
  5
37D
  8
LAYER_1
 10
3172.061161057845
 20
899.7054257094212
 30
0.0
  0
VERTEX
  5
37E
  8
LAYER_1
 10
3172.061161057832
 20
902.9449257356844
 30
0.0
  0
VERTEX
  5
37F
  8
LAYER_1
 10
3165.686661006152
 20
902.9449257356844
 30
0.0
  0
VERTEX
  5
380
  8
LAYER_1
 10
3165.686661006152
 20
899.7054257094212
 30
0.0
  0
VERTEX
  5
381
  8
LAYER_1
 10
3165.686661006152
 20
880.8954255569249
 30
0.0
  0
VERTEX
  5
382
  8
LAYER_1
 10
3050.73666007423
 20
880.8954255569249
 30
0.0
  0
VERTEX
  5
383
  8
LAYER_1
 10
3050.73666007423
 20
899.7054257094212
 30
0.0
  0
VERTEX
  5
384
  8
LAYER_1
 10
3050.73666007423
 20
902.9449257356844
 30
0.0
  0
VERTEX
  5
385
  8
LAYER_1
 10
3044.362160022551
 20
902.9449257356844
 30
0.0
  0
VERTEX
  5
386
  8
LAYER_1
 10
3044.362160022491
 20
899.7054257094212
 30
0.0
  0
SEQEND
  5
55D
  8
LAYER_1
  0
POLYLINE
  5
E8
  8
LAYER_1
 66
     1
 10
0.0
 20
0.0
 30
0.0
 70
     1
  0
VERTEX
  5
387
  8
LAYER_1
 10
2935.786659142307
 20
1761.489484361878
 30
0.0
  0
VERTEX
  5
388
  8
LAYER_1
 10
2935.786659142307
 20
2407.29948959759
 30
0.0
  0
VERTEX
  5
389
  8
LAYER_1
 10
3037.177784964297
 20
2407.29948959759
 30
0.0
  0
VERTEX
  5
38A
  8
LAYER_1
 10
3037.177784964306
 20
2404.059989571326
 30
0.0
  0
VERTEX
  5
38B
  8
LAYER_1
 10
3043.552285015985
 20
2404.059989571326
 30
0.0
  0
VERTEX
  5
38C
  8
LAYER_1
 10
3043.552285015985
 20
2407.29948959759
 30
0.0
  0
VERTEX
  5
38D
  8
LAYER_1
 10
3043.552285015985
 20
2426.109489750087
 30
0.0
  0
VERTEX
  5
38E
  8
LAYER_1
 10
3115.396035598437
 20
2426.109489750087
 30
0.0
  0
VERTEX
  5
38F
  8
LAYER_1
 10
3115.396035598437
 20
2407.29948959759
 30
0.0
  0
VERTEX
  5
390
  8
LAYER_1
 10
3115.396035598437
 20
2404.059989571326
 30
0.0
  0
VERTEX
  5
391
  8
LAYER_1
 10
3121.770535650116
 20
2404.059989571326
 30
0.0
  0
VERTEX
  5
392
  8
LAYER_1
 10
3121.770535650152
 20
2407.29948959759
 30
0.0
  0
VERTEX
  5
393
  8
LAYER_1
 10
3324.552787294106
 20
2407.29948959759
 30
0.0
  0
VERTEX
  5
394
  8
LAYER_1
 10
3324.552787294113
 20
2404.059989571326
 30
0.0
  0
VERTEX
  5
395
  8
LAYER_1
 10
3330.927287345792
 20
2404.059989571326
 30
0.0
  0
VERTEX
  5
396
  8
LAYER_1
 10
3330.927287345792
 20
2407.29948959759
 30
0.0
  0
VERTEX
  5
397
  8
LAYER_1
 10
3330.927287345792
 20
2426.109489750087
 30
0.0
  0
VERTEX
  5
398
  8
LAYER_1
 10
3402.771037928243
 20
2426.109489750087
 30
0.0
  0
VERTEX
  5
399
  8
LAYER_1
 10
3402.771037928243
 20
2407.29948959759
 30
0.0
  0
VERTEX
  5
39A
  8
LAYER_1
 10
3402.771037928243
 20
2404.059989571326
 30
0.0
  0
VERTEX
  5
39B
  8
LAYER_1
 10
3409.145537979923
 20
2404.059989571326
 30
0.0
  0
VERTEX
  5
39C
  8
LAYER_1
 10
3409.145537979923
 20
2407.29948959759
 30
0.0
  0
VERTEX
  5
39D
  8
LAYER_1
 10
3510.536663801921
 20
2407.29948959759
 30
0.0
  0
VERTEX
  5
39E
  8
LAYER_1
 10
3510.536663801921
 20
1761.489484361878
 30
0.0
  0
VERTEX
  5
39F
  8
LAYER_1
 10
3409.145537979903
 20
1761.489484361878
 30
0.0
  0
VERTEX
  5
3A0
  8
LAYER_1
 10
3409.145537979923
 20
1764.728984388141
 30
0.0
  0
VERTEX
  5
3A1
  8
LAYER_1
 10
3402.771037928243
 20
1764.728984388141
 30
0.0
  0
VERTEX
  5
3A2
  8
LAYER_1
 10
3402.771037928243
 20
1761.489484361878
 30
0.0
  0
VERTEX
  5
3A3
  8
LAYER_1
 10
3402.771037928243
 20
1742.679484209381
 30
0.0
  0
VERTEX
  5
3A4
  8
LAYER_1
 10
3330.927287345792
 20
1742.679484209382
 30
0.0
  0
VERTEX
  5
3A5
  8
LAYER_1
 10
3330.927287345792
 20
1761.489484361878
 30
0.0
  0
VERTEX
  5
3A6
  8
LAYER_1
 10
3330.927287345792
 20
1764.728984388141
 30
0.0
  0
VERTEX
  5
3A7
  8
LAYER_1
 10
3324.552787294113
 20
1764.728984388141
 30
0.0
  0
VERTEX
  5
3A8
  8
LAYER_1
 10
3324.552787294126
 20
1761.489484361878
 30
0.0
  0
VERTEX
  5
3A9
  8
LAYER_1
 10
3121.770535650112
 20
1761.489484361878
 30
0.0
  0
VERTEX
  5
3AA
  8
LAYER_1
 10
3121.770535650116
 20
1764.728984388141
 30
0.0
  0
VERTEX
  5
3AB
  8
LAYER_1
 10
3115.396035598437
 20
1764.728984388141
 30
0.0
  0
VERTEX
  5
3AC
  8
LAYER_1
 10
3115.396035598437
 20
1761.489484361878
 30
0.0
  0
VERTEX
  5
3AD
  8
LAYER_1
 10
3115.396035598437
 20
1742.679484209382
 30
0.0
  0
VERTEX
  5
3AE
  8
LAYER_1
 10
3043.552285015985
 20
1742.679484209382
 30
0.0
  0
VERTEX
  5
3AF
  8
LAYER_1
 10
3043.552285015985
 20
1761.489484361878
 30
0.0
  0
VERTEX
  5
3B0
  8
LAYER_1
 10
3043.552285015985
 20
1764.728984388141
 30
0.0
  0
VERTEX
  5
3B1
  8
LAYER_1
 10
3037.177784964306
 20
1764.728984388141
 30
0.0
  0
VERTEX
  5
3B2
  8
LAYER_1
 10
3037.177784964306
 20
1761.489484361878
 30
0.0
  0
SEQEND
  5
55E
  8
LAYER_1
  0
POLYLINE
  5
E9
  8
LAYER_1
 66
     1
 10
0.0
 20
0.0
 30
0.0
 70
     1
  0
VERTEX
  5
3B3
  8
LAYER_1
 10
3899.667632290221
 20
219.5482539513947
 30
0.0
  0
VERTEX
  5
3B4
  8
LAYER_1
 10
3896.428132263958
 20
219.5482539513947
 30
0.0
  0
VERTEX
  5
3B5
  8
LAYER_1
 10
3896.428132263958
 20
213.1737538997151
 30
0.0
  0
VERTEX
  5
3B6
  8
LAYER_1
 10
3899.667632290144
 20
213.1737538997078
 30
0.0
  0
VERTEX
  5
3B7
  8
LAYER_1
 10
3899.667632290144
 20
154.0790034206647
 30
0.0
  0
VERTEX
  5
3B8
  8
LAYER_1
 10
3896.428132263958
 20
154.0790034206226
 30
0.0
  0
VERTEX
  5
3B9
  8
LAYER_1
 10
3896.428132263958
 20
147.7045033689429
 30
0.0
  0
VERTEX
  5
3BA
  8
LAYER_1
 10
3899.667632290144
 20
147.7045033690612
 30
0.0
  0
VERTEX
  5
3BB
  8
LAYER_1
 10
3918.47763244264
 20
147.7045033690612
 30
0.0
  0
VERTEX
  5
3BC
  8
LAYER_1
 10
3921.717132468981
 20
147.7045033689429
 30
0.0
  0
VERTEX
  5
3BD
  8
LAYER_1
 10
3921.717132468981
 20
154.0790034206221
 30
0.0
  0
VERTEX
  5
3BE
  8
LAYER_1
 10
3918.47763244264
 20
154.0790034206642
 30
0.0
  0
VERTEX
  5
3BF
  8
LAYER_1
 10
3918.47763244264
 20
213.1737538997075
 30
0.0
  0
VERTEX
  5
3C0
  8
LAYER_1
 10
3921.717132468981
 20
213.1737538997151
 30
0.0
  0
VERTEX
  5
3C1
  8
LAYER_1
 10
3921.717132468981
 20
219.5482539513947
 30
0.0
  0
VERTEX
  5
3C2
  8
LAYER_1
 10
3918.47763244264
 20
219.5482539515127
 30
0.0
  0
SEQEND
  5
55F
  8
LAYER_1
  0
POLYLINE
  5
EA
  8
LAYER_1
 66
     1
 10
0.0
 20
0.0
 30
0.0
 70
     1
  0
VERTEX
  5
3C3
  8
LAYER_1
 10
3899.66763228991
 20
506.9232562817159
 30
0.0
  0
VERTEX
  5
3C4
  8
LAYER_1
 10
3896.428132263647
 20
506.9232562817159
 30
0.0
  0
VERTEX
  5
3C5
  8
LAYER_1
 10
3896.428132263647
 20
500.5487562300349
 30
0.0
  0
VERTEX
  5
3C6
  8
LAYER_1
 10
3899.667632289988
 20
500.5487562300112
 30
0.0
  0
VERTEX
  5
3C7
  8
LAYER_1
 10
3899.667632289988
 20
441.4540057508892
 30
0.0
  0
VERTEX
  5
3C8
  8
LAYER_1
 10
3896.428132263647
 20
441.4540057509429
 30
0.0
  0
VERTEX
  5
3C9
  8
LAYER_1
 10
3896.428132263647
 20
435.0795056992637
 30
0.0
  0
VERTEX
  5
3CA
  8
LAYER_1
 10
3899.667632289988
 20
435.0795056991245
 30
0.0
  0
VERTEX
  5
3CB
  8
LAYER_1
 10
3918.477632442485
 20
435.0795056991245
 30
0.0
  0
VERTEX
  5
3CC
  8
LAYER_1
 10
3921.71713246867
 20
435.0795056992637
 30
0.0
  0
VERTEX
  5
3CD
  8
LAYER_1
 10
3921.71713246867
 20
441.4540057509424
 30
0.0
  0
VERTEX
  5
3CE
  8
LAYER_1
 10
3918.477632442485
 20
441.4540057508892
 30
0.0
  0
VERTEX
  5
3CF
  8
LAYER_1
 10
3918.477632442485
 20
500.5487562300112
 30
0.0
  0
VERTEX
  5
3D0
  8
LAYER_1
 10
3921.71713246867
 20
500.5487562300349
 30
0.0
  0
VERTEX
  5
3D1
  8
LAYER_1
 10
3921.71713246867
 20
506.9232562817159
 30
0.0
  0
VERTEX
  5
3D2
  8
LAYER_1
 10
3918.477632442485
 20
506.9232562815763
 30
0.0
  0
SEQEND
  5
560
  8
LAYER_1
  0
POLYLINE
  5
EB
  8
LAYER_1
 66
     1
 10
0.0
 20
0.0
 30
0.0
 70
     1
  0
VERTEX
  5
3D3
  8
LAYER_1
 10
4231.977634984168
 20
219.5482539516396
 30
0.0
  0
VERTEX
  5
3D4
  8
LAYER_1
 10
4228.738134957905
 20
219.5482539516396
 30
0.0
  0
VERTEX
  5
3D5
  8
LAYER_1
 10
4228.738134957905
 20
213.1737538999599
 30
0.0
  0
VERTEX
  5
3D6
  8
LAYER_1
 10
4231.97763498417
 20
213.1737538999483
 30
0.0
  0
VERTEX
  5
3D7
  8
LAYER_1
 10
4231.97763498417
 20
154.079003420905
 30
0.0
  0
VERTEX
  5
3D8
  8
LAYER_1
 10
4228.738134957905
 20
154.0790034208679
 30
0.0
  0
VERTEX
  5
3D9
  8
LAYER_1
 10
4228.738134957905
 20
147.704503369188
 30
0.0
  0
VERTEX
  5
3DA
  8
LAYER_1
 10
4231.97763498417
 20
147.7045033691837
 30
0.0
  0
VERTEX
  5
3DB
  8
LAYER_1
 10
4250.787635136666
 20
147.7045033691837
 30
0.0
  0
VERTEX
  5
3DC
  8
LAYER_1
 10
4254.027135162927
 20
147.704503369188
 30
0.0
  0
VERTEX
  5
3DD
  8
LAYER_1
 10
4254.027135162927
 20
154.0790034208675
 30
0.0
  0
VERTEX
  5
3DE
  8
LAYER_1
 10
4250.787635136666
 20
154.0790034208652
 30
0.0
  0
VERTEX
  5
3DF
  8
LAYER_1
 10
4250.787635136666
 20
213.1737538999483
 30
0.0
  0
VERTEX
  5
3E0
  8
LAYER_1
 10
4254.027135162927
 20
213.1737538999599
 30
0.0
  0
VERTEX
  5
3E1
  8
LAYER_1
 10
4254.027135162927
 20
219.5482539516396
 30
0.0
  0
VERTEX
  5
3E2
  8
LAYER_1
 10
4250.787635136666
 20
219.5482539516353
 30
0.0
  0
SEQEND
  5
561
  8
LAYER_1
  0
POLYLINE
  5
EC
  8
LAYER_1
 66
     1
 10
0.0
 20
0.0
 30
0.0
 70
     1
  0
VERTEX
  5
3E3
  8
LAYER_1
 10
4231.977634984168
 20
506.9232562814331
 30
0.0
  0
VERTEX
  5
3E4
  8
LAYER_1
 10
4228.738134957905
 20
506.9232562814331
 30
0.0
  0
VERTEX
  5
3E5
  8
LAYER_1
 10
4228.738134957905
 20
500.5487562297538
 30
0.0
  0
VERTEX
  5
3E6
  8
LAYER_1
 10
4231.97763498417
 20
500.5487562297525
 30
0.0
  0
VERTEX
  5
3E7
  8
LAYER_1
 10
4231.97763498417
 20
441.4540057506705
 30
0.0
  0
VERTEX
  5
3E8
  8
LAYER_1
 10
4228.738134957905
 20
441.4540057506618
 30
0.0
  0
VERTEX
  5
3E9
  8
LAYER_1
 10
4228.738134957905
 20
435.0795056989822
 30
0.0
  0
VERTEX
  5
3EA
  8
LAYER_1
 10
4231.97763498417
 20
435.0795056989845
 30
0.0
  0
VERTEX
  5
3EB
  8
LAYER_1
 10
4250.787635136666
 20
435.0795056989845
 30
0.0
  0
VERTEX
  5
3EC
  8
LAYER_1
 10
4254.027135162927
 20
435.0795056989822
 30
0.0
  0
VERTEX
  5
3ED
  8
LAYER_1
 10
4254.027135162927
 20
441.4540057506614
 30
0.0
  0
VERTEX
  5
3EE
  8
LAYER_1
 10
4250.787635136666
 20
441.4540057506696
 30
0.0
  0
VERTEX
  5
3EF
  8
LAYER_1
 10
4250.787635136666
 20
500.5487562297525
 30
0.0
  0
VERTEX
  5
3F0
  8
LAYER_1
 10
4254.027135162927
 20
500.5487562297538
 30
0.0
  0
VERTEX
  5
3F1
  8
LAYER_1
 10
4254.027135162927
 20
506.9232562814331
 30
0.0
  0
VERTEX
  5
3F2
  8
LAYER_1
 10
4250.787635136666
 20
506.9232562814362
 30
0.0
  0
SEQEND
  5
562
  8
LAYER_1
  0
POLYLINE
  5
ED
  8
LAYER_1
 66
     1
 10
0.0
 20
0.0
 30
0.0
 70
     1
  0
VERTEX
  5
3F3
  8
LAYER_1
 10
3330.927287345797
 20
2074.989486903483
 30
0.0
  0
VERTEX
  5
3F4
  8
LAYER_1
 10
3330.927287345797
 20
2071.74998687722
 30
0.0
  0
VERTEX
  5
3F5
  8
LAYER_1
 10
3337.301787397477
 20
2071.74998687722
 30
0.0
  0
VERTEX
  5
3F6
  8
LAYER_1
 10
3337.301787397454
 20
2074.989486903484
 30
0.0
  0
VERTEX
  5
3F7
  8
LAYER_1
 10
3396.396537876576
 20
2074.989486903484
 30
0.0
  0
VERTEX
  5
3F8
  8
LAYER_1
 10
3396.396537876569
 20
2071.74998687722
 30
0.0
  0
VERTEX
  5
3F9
  8
LAYER_1
 10
3402.771037928249
 20
2071.74998687722
 30
0.0
  0
VERTEX
  5
3FA
  8
LAYER_1
 10
3402.771037928246
 20
2074.989486903484
 30
0.0
  0
VERTEX
  5
3FB
  8
LAYER_1
 10
3402.771037928246
 20
2093.799487055981
 30
0.0
  0
VERTEX
  5
3FC
  8
LAYER_1
 10
3402.771037928249
 20
2097.038987082242
 30
0.0
  0
VERTEX
  5
3FD
  8
LAYER_1
 10
3396.39653787657
 20
2097.038987082242
 30
0.0
  0
VERTEX
  5
3FE
  8
LAYER_1
 10
3396.396537876576
 20
2093.799487055981
 30
0.0
  0
VERTEX
  5
3FF
  8
LAYER_1
 10
3337.301787397493
 20
2093.799487055981
 30
0.0
  0
VERTEX
  5
400
  8
LAYER_1
 10
3337.301787397477
 20
2097.038987082242
 30
0.0
  0
VERTEX
  5
401
  8
LAYER_1
 10
3330.927287345797
 20
2097.038987082242
 30
0.0
  0
VERTEX
  5
402
  8
LAYER_1
 10
3330.927287345794
 20
2093.799487055981
 30
0.0
  0
SEQEND
  5
563
  8
LAYER_1
  0
POLYLINE
  5
EE
  8
LAYER_1
 66
     1
 10
0.0
 20
0.0
 30
0.0
 70
     1
  0
VERTEX
  5
403
  8
LAYER_1
 10
3043.55228501599
 20
2074.989486903487
 30
0.0
  0
VERTEX
  5
404
  8
LAYER_1
 10
3043.55228501599
 20
2071.749986877223
 30
0.0
  0
VERTEX
  5
405
  8
LAYER_1
 10
3049.92678506767
 20
2071.749986877223
 30
0.0
  0
VERTEX
  5
406
  8
LAYER_1
 10
3049.926785067682
 20
2074.989486903486
 30
0.0
  0
VERTEX
  5
407
  8
LAYER_1
 10
3109.021535546764
 20
2074.989486903486
 30
0.0
  0
VERTEX
  5
408
  8
LAYER_1
 10
3109.021535546762
 20
2071.749986877223
 30
0.0
  0
VERTEX
  5
409
  8
LAYER_1
 10
3115.396035598442
 20
2071.749986877223
 30
0.0
  0
VERTEX
  5
40A
  8
LAYER_1
 10
3115.396035598439
 20
2074.989486903486
 30
0.0
  0
VERTEX
  5
40B
  8
LAYER_1
 10
3115.396035598439
 20
2093.799487055982
 30
0.0
  0
VERTEX
  5
40C
  8
LAYER_1
 10
3115.396035598442
 20
2097.038987082246
 30
0.0
  0
VERTEX
  5
40D
  8
LAYER_1
 10
3109.021535546763
 20
2097.038987082246
 30
0.0
  0
VERTEX
  5
40E
  8
LAYER_1
 10
3109.021535546765
 20
2093.799487055982
 30
0.0
  0
VERTEX
  5
40F
  8
LAYER_1
 10
3049.926785067682
 20
2093.799487055982
 30
0.0
  0
VERTEX
  5
410
  8
LAYER_1
 10
3049.92678506767
 20
2097.038987082246
 30
0.0
  0
VERTEX
  5
411
  8
LAYER_1
 10
3043.55228501599
 20
2097.038987082246
 30
0.0
  0
VERTEX
  5
412
  8
LAYER_1
 10
3043.552285015988
 20
2093.799487055982
 30
0.0
  0
SEQEND
  5
564
  8
LAYER_1
  0
POLYLINE
  5
EF
  8
LAYER_1
 66
     1
 10
0.0
 20
0.0
 30
0.0
 70
     1
  0
VERTEX
  5
413
  8
LAYER_1
 10
3330.927287346264
 20
1004.205426557285
 30
0.0
  0
VERTEX
  5
414
  8
LAYER_1
 10
3330.927287346264
 20
1000.965926531022
 30
0.0
  0
VERTEX
  5
415
  8
LAYER_1
 10
3337.301787397944
 20
1000.965926531022
 30
0.0
  0
VERTEX
  5
416
  8
LAYER_1
 10
3337.301787398043
 20
1004.205426556954
 30
0.0
  0
VERTEX
  5
417
  8
LAYER_1
 10
3396.396537876929
 20
1004.205426556954
 30
0.0
  0
VERTEX
  5
418
  8
LAYER_1
 10
3396.396537877036
 20
1000.965926531022
 30
0.0
  0
VERTEX
  5
419
  8
LAYER_1
 10
3402.771037928716
 20
1000.965926531022
 30
0.0
  0
VERTEX
  5
41A
  8
LAYER_1
 10
3402.77103792848
 20
1004.205426556954
 30
0.0
  0
VERTEX
  5
41B
  8
LAYER_1
 10
3402.77103792848
 20
1023.015426709451
 30
0.0
  0
VERTEX
  5
41C
  8
LAYER_1
 10
3402.771037928716
 20
1026.254926736044
 30
0.0
  0
VERTEX
  5
41D
  8
LAYER_1
 10
3396.396537877036
 20
1026.254926736044
 30
0.0
  0
VERTEX
  5
41E
  8
LAYER_1
 10
3396.396537877086
 20
1023.015426709451
 30
0.0
  0
VERTEX
  5
41F
  8
LAYER_1
 10
3337.301787398043
 20
1023.015426709451
 30
0.0
  0
VERTEX
  5
420
  8
LAYER_1
 10
3337.301787397944
 20
1026.254926736044
 30
0.0
  0
VERTEX
  5
421
  8
LAYER_1
 10
3330.927287346264
 20
1026.254926736044
 30
0.0
  0
VERTEX
  5
422
  8
LAYER_1
 10
3330.927287346028
 20
1023.015426709451
 30
0.0
  0
SEQEND
  5
565
  8
LAYER_1
  0
POLYLINE
  5
F0
  8
LAYER_1
 66
     1
 10
0.0
 20
0.0
 30
0.0
 70
     1
  0
VERTEX
  5
423
  8
LAYER_1
 10
3043.552285015985
 20
1004.205426556624
 30
0.0
  0
VERTEX
  5
424
  8
LAYER_1
 10
3043.552285015985
 20
1000.965926530361
 30
0.0
  0
VERTEX
  5
425
  8
LAYER_1
 10
3049.926785067664
 20
1000.965926530361
 30
0.0
  0
VERTEX
  5
426
  8
LAYER_1
 10
3049.926785067681
 20
1004.205426556624
 30
0.0
  0
VERTEX
  5
427
  8
LAYER_1
 10
3109.021535546724
 20
1004.205426556624
 30
0.0
  0
VERTEX
  5
428
  8
LAYER_1
 10
3109.021535546757
 20
1000.965926530361
 30
0.0
  0
VERTEX
  5
429
  8
LAYER_1
 10
3115.396035598436
 20
1000.965926530361
 30
0.0
  0
VERTEX
  5
42A
  8
LAYER_1
 10
3115.396035598436
 20
1004.205426556624
 30
0.0
  0
VERTEX
  5
42B
  8
LAYER_1
 10
3115.396035598436
 20
1023.01542670912
 30
0.0
  0
VERTEX
  5
42C
  8
LAYER_1
 10
3115.396035598436
 20
1026.254926735383
 30
0.0
  0
VERTEX
  5
42D
  8
LAYER_1
 10
3109.021535546757
 20
1026.254926735383
 30
0.0
  0
VERTEX
  5
42E
  8
LAYER_1
 10
3109.021535546724
 20
1023.01542670912
 30
0.0
  0
VERTEX
  5
42F
  8
LAYER_1
 10
3049.926785067681
 20
1023.01542670912
 30
0.0
  0
VERTEX
  5
430
  8
LAYER_1
 10
3049.926785067664
 20
1026.254926735383
 30
0.0
  0
VERTEX
  5
431
  8
LAYER_1
 10
3043.552285015985
 20
1026.254926735383
 30
0.0
  0
VERTEX
  5
432
  8
LAYER_1
 10
3043.552285015985
 20
1023.01542670912
 30
0.0
  0
SEQEND
  5
566
  8
LAYER_1
  0
POLYLINE
  5
F1
  8
LAYER_1
 66
     1
 10
0.0
 20
0.0
 30
0.0
 70
     1
  0
VERTEX
  5
433
  8
LAYER_1
 10
3973.993257892636
 20
1362.527370773397
 30
0.0
  0
VERTEX
  5
434
  8
LAYER_1
 10
3973.993257892636
 20
1365.627370773397
 30
0.0
  0
VERTEX
  5
435
  8
LAYER_1
 10
3980.093257892637
 20
1365.627370773397
 30
0.0
  0
VERTEX
  5
436
  8
LAYER_1
 10
3980.093257892643
 20
1362.527370773403
 30
0.0
  0
VERTEX
  5
437
  8
LAYER_1
 10
4039.737008475077
 20
1362.527370773403
 30
0.0
  0
VERTEX
  5
438
  8
LAYER_1
 10
4039.737008475088
 20
1365.627370773397
 30
0.0
  0
VERTEX
  5
439
  8
LAYER_1
 10
4045.837008475088
 20
1365.627370773397
 30
0.0
  0
VERTEX
  5
43A
  8
LAYER_1
 10
4045.83700847509
 20
1362.527370773403
 30
0.0
  0
VERTEX
  5
43B
  8
LAYER_1
 10
4045.83700847509
 20
1343.717370620907
 30
0.0
  0
VERTEX
  5
43C
  8
LAYER_1
 10
4045.837008475088
 20
1340.6173706209
 30
0.0
  0
VERTEX
  5
43D
  8
LAYER_1
 10
4039.737008475088
 20
1340.6173706209
 30
0.0
  0
VERTEX
  5
43E
  8
LAYER_1
 10
4039.737008475097
 20
1343.717370620907
 30
0.0
  0
VERTEX
  5
43F
  8
LAYER_1
 10
3980.093257892628
 20
1343.717370620907
 30
0.0
  0
VERTEX
  5
440
  8
LAYER_1
 10
3980.093257892637
 20
1340.6173706209
 30
0.0
  0
VERTEX
  5
441
  8
LAYER_1
 10
3973.993257892636
 20
1340.6173706209
 30
0.0
  0
VERTEX
  5
442
  8
LAYER_1
 10
3973.993257892638
 20
1343.717370620907
 30
0.0
  0
SEQEND
  5
567
  8
LAYER_1
  0
POLYLINE
  5
F2
  8
LAYER_1
 66
     1
 10
0.0
 20
0.0
 30
0.0
 70
     1
  0
VERTEX
  5
443
  8
LAYER_1
 10
3686.618255562832
 20
1362.52737077341
 30
0.0
  0
VERTEX
  5
444
  8
LAYER_1
 10
3686.618255562832
 20
1343.717370620912
 30
0.0
  0
VERTEX
  5
445
  8
LAYER_1
 10
3686.618255562832
 20
1340.61737062091
 30
0.0
  0
VERTEX
  5
446
  8
LAYER_1
 10
3692.718255562832
 20
1340.61737062091
 30
0.0
  0
VERTEX
  5
447
  8
LAYER_1
 10
3692.718255562834
 20
1343.717370620912
 30
0.0
  0
VERTEX
  5
448
  8
LAYER_1
 10
3752.362006145285
 20
1343.717370620912
 30
0.0
  0
VERTEX
  5
449
  8
LAYER_1
 10
3752.362006145283
 20
1340.61737062091
 30
0.0
  0
VERTEX
  5
44A
  8
LAYER_1
 10
3758.462006145284
 20
1340.61737062091
 30
0.0
  0
VERTEX
  5
44B
  8
LAYER_1
 10
3758.462006145284
 20
1343.717370620912
 30
0.0
  0
VERTEX
  5
44C
  8
LAYER_1
 10
3758.462006145284
 20
1362.527370773408
 30
0.0
  0
VERTEX
  5
44D
  8
LAYER_1
 10
3758.462006145284
 20
1365.627370773407
 30
0.0
  0
VERTEX
  5
44E
  8
LAYER_1
 10
3752.362006145283
 20
1365.627370773407
 30
0.0
  0
VERTEX
  5
44F
  8
LAYER_1
 10
3752.362006145283
 20
1362.527370773408
 30
0.0
  0
VERTEX
  5
450
  8
LAYER_1
 10
3692.718255562834
 20
1362.527370773408
 30
0.0
  0
VERTEX
  5
451
  8
LAYER_1
 10
3692.718255562832
 20
1365.627370773407
 30
0.0
  0
VERTEX
  5
452
  8
LAYER_1
 10
3686.618255562832
 20
1365.627370773407
 30
0.0
  0
SEQEND
  5
568
  8
LAYER_1
  0
POLYLINE
  5
F3
  8
LAYER_1
 66
     1
 10
0.0
 20
0.0
 30
0.0
 70
     1
  0
VERTEX
  5
453
  8
LAYER_1
 10
4231.977634984167
 20
812.0882540532914
 30
0.0
  0
VERTEX
  5
454
  8
LAYER_1
 10
4228.877634984166
 20
812.0882540532914
 30
0.0
  0
VERTEX
  5
455
  8
LAYER_1
 10
4228.877634984166
 20
805.9882540532913
 30
0.0
  0
VERTEX
  5
456
  8
LAYER_1
 10
4231.977634984169
 20
805.9882540532932
 30
0.0
  0
VERTEX
  5
457
  8
LAYER_1
 10
4231.977634984169
 20
746.3445034708408
 30
0.0
  0
VERTEX
  5
458
  8
LAYER_1
 10
4228.877634984166
 20
746.3445034708398
 30
0.0
  0
VERTEX
  5
459
  8
LAYER_1
 10
4228.877634984166
 20
740.2445034708396
 30
0.0
  0
VERTEX
  5
45A
  8
LAYER_1
 10
4231.977634984169
 20
740.2445034708418
 30
0.0
  0
VERTEX
  5
45B
  8
LAYER_1
 10
4250.787635136665
 20
740.2445034708418
 30
0.0
  0
VERTEX
  5
45C
  8
LAYER_1
 10
4253.887635136663
 20
740.2445034708396
 30
0.0
  0
VERTEX
  5
45D
  8
LAYER_1
 10
4253.887635136663
 20
746.3445034708398
 30
0.0
  0
VERTEX
  5
45E
  8
LAYER_1
 10
4250.787635136665
 20
746.3445034708408
 30
0.0
  0
VERTEX
  5
45F
  8
LAYER_1
 10
4250.787635136665
 20
805.9882540532932
 30
0.0
  0
VERTEX
  5
460
  8
LAYER_1
 10
4253.887635136663
 20
805.9882540532913
 30
0.0
  0
VERTEX
  5
461
  8
LAYER_1
 10
4253.887635136663
 20
812.0882540532914
 30
0.0
  0
VERTEX
  5
462
  8
LAYER_1
 10
4250.787635136665
 20
812.0882540532933
 30
0.0
  0
SEQEND
  5
569
  8
LAYER_1
  0
POLYLINE
  5
F4
  8
LAYER_1
 66
     1
 10
0.0
 20
0.0
 30
0.0
 70
     1
  0
VERTEX
  5
463
  8
LAYER_1
 10
4231.97763498417
 20
1099.463256383102
 30
0.0
  0
VERTEX
  5
464
  8
LAYER_1
 10
4228.877634984171
 20
1099.463256383102
 30
0.0
  0
VERTEX
  5
465
  8
LAYER_1
 10
4228.877634984171
 20
1093.363256383102
 30
0.0
  0
VERTEX
  5
466
  8
LAYER_1
 10
4231.97763498417
 20
1093.363256383109
 30
0.0
  0
VERTEX
  5
467
  8
LAYER_1
 10
4231.97763498417
 20
1033.719505800657
 30
0.0
  0
VERTEX
  5
468
  8
LAYER_1
 10
4228.877634984171
 20
1033.71950580065
 30
0.0
  0
VERTEX
  5
469
  8
LAYER_1
 10
4228.877634984171
 20
1027.619505800651
 30
0.0
  0
VERTEX
  5
46A
  8
LAYER_1
 10
4231.97763498417
 20
1027.619505800651
 30
0.0
  0
VERTEX
  5
46B
  8
LAYER_1
 10
4250.787635136668
 20
1027.619505800651
 30
0.0
  0
VERTEX
  5
46C
  8
LAYER_1
 10
4253.887635136667
 20
1027.619505800651
 30
0.0
  0
VERTEX
  5
46D
  8
LAYER_1
 10
4253.887635136667
 20
1033.71950580065
 30
0.0
  0
VERTEX
  5
46E
  8
LAYER_1
 10
4250.787635136668
 20
1033.719505800657
 30
0.0
  0
VERTEX
  5
46F
  8
LAYER_1
 10
4250.787635136668
 20
1093.363256383091
 30
0.0
  0
VERTEX
  5
470
  8
LAYER_1
 10
4253.887635136667
 20
1093.363256383102
 30
0.0
  0
VERTEX
  5
471
  8
LAYER_1
 10
4253.887635136667
 20
1099.463256383102
 30
0.0
  0
VERTEX
  5
472
  8
LAYER_1
 10
4250.787635136668
 20
1099.463256383102
 30
0.0
  0
SEQEND
  5
56A
  8
LAYER_1
  0
POLYLINE
  5
F5
  8
LAYER_1
 66
     1
 10
0.0
 20
0.0
 30
0.0
  0
VERTEX
  5
473
  8
LAYER_1
 10
4739.847639101576
 20
619.9388774955017
 30
0.0
  0
VERTEX
  5
474
  8
LAYER_1
 10
4739.847639101576
 20
632.4788775971659
 30
0.0
  0
VERTEX
  5
475
  8
LAYER_1
 10
4739.847639101576
 20
747.4288785290886
 30
0.0
  0
VERTEX
  5
476
  8
LAYER_1
 10
4721.037638949078
 20
747.4288785290886
 30
0.0
  0
VERTEX
  5
477
  8
LAYER_1
 10
4717.798138922815
 20
747.4288785290886
 30
0.0
  0
VERTEX
  5
478
  8
LAYER_1
 10
4717.798138922815
 20
753.8033785807683
 30
0.0
  0
VERTEX
  5
479
  8
LAYER_1
 10
4721.037638949078
 20
753.8033785807683
 30
0.0
  0
VERTEX
  5
47A
  8
LAYER_1
 10
4721.037638949078
 20
856.0043794093348
 30
0.0
  0
VERTEX
  5
47B
  8
LAYER_1
 10
4717.798138922815
 20
856.0043794093325
 30
0.0
  0
VERTEX
  5
47C
  8
LAYER_1
 10
4717.798138922815
 20
862.3788794610113
 30
0.0
  0
VERTEX
  5
47D
  8
LAYER_1
 10
4721.037638949078
 20
862.3788794610113
 30
0.0
  0
VERTEX
  5
47E
  8
LAYER_1
 10
4739.847639101576
 20
862.3788794610113
 30
0.0
  0
VERTEX
  5
47F
  8
LAYER_1
 10
4739.847639101576
 20
977.3288803929344
 30
0.0
  0
VERTEX
  5
480
  8
LAYER_1
 10
4721.037638949078
 20
977.3288803929344
 30
0.0
  0
VERTEX
  5
481
  8
LAYER_1
 10
4717.798138922815
 20
977.3288803929344
 30
0.0
  0
VERTEX
  5
482
  8
LAYER_1
 10
4717.798138922815
 20
983.7033804446136
 30
0.0
  0
VERTEX
  5
483
  8
LAYER_1
 10
4721.037638949078
 20
983.7033804446099
 30
0.0
  0
VERTEX
  5
484
  8
LAYER_1
 10
4721.037638949078
 20
1085.904381273187
 30
0.0
  0
VERTEX
  5
485
  8
LAYER_1
 10
4717.798138922815
 20
1085.904381273178
 30
0.0
  0
VERTEX
  5
486
  8
LAYER_1
 10
4717.798138922815
 20
1092.278881324857
 30
0.0
  0
VERTEX
  5
487
  8
LAYER_1
 10
4721.037638949078
 20
1092.278881324857
 30
0.0
  0
VERTEX
  5
488
  8
LAYER_1
 10
4739.847639101576
 20
1092.278881324857
 30
0.0
  0
VERTEX
  5
489
  8
LAYER_1
 10
4739.847639101576
 20
1207.22888225678
 30
0.0
  0
VERTEX
  5
48A
  8
LAYER_1
 10
3567.357629595963
 20
1207.22888225678
 30
0.0
  0
VERTEX
  5
48B
  8
LAYER_1
 10
3567.357629595963
 20
1092.278881324857
 30
0.0
  0
VERTEX
  5
48C
  8
LAYER_1
 10
3586.167629748459
 20
1092.278881324857
 30
0.0
  0
VERTEX
  5
48D
  8
LAYER_1
 10
3589.407129774723
 20
1092.278881324857
 30
0.0
  0
VERTEX
  5
48E
  8
LAYER_1
 10
3589.407129774723
 20
1085.904381273178
 30
0.0
  0
VERTEX
  5
48F
  8
LAYER_1
 10
3586.167629748459
 20
1085.904381273196
 30
0.0
  0
VERTEX
  5
490
  8
LAYER_1
 10
3586.167629748459
 20
983.7033804446099
 30
0.0
  0
VERTEX
  5
491
  8
LAYER_1
 10
3589.407129774723
 20
983.7033804446136
 30
0.0
  0
VERTEX
  5
492
  8
LAYER_1
 10
3589.407129774723
 20
977.3288803929344
 30
0.0
  0
VERTEX
  5
493
  8
LAYER_1
 10
3586.167629748459
 20
977.3288803929344
 30
0.0
  0
VERTEX
  5
494
  8
LAYER_1
 10
3567.357629595963
 20
977.3288803929344
 30
0.0
  0
VERTEX
  5
495
  8
LAYER_1
 10
3567.357629595963
 20
862.3788794610113
 30
0.0
  0
VERTEX
  5
496
  8
LAYER_1
 10
3586.167629748459
 20
862.3788794610113
 30
0.0
  0
VERTEX
  5
497
  8
LAYER_1
 10
3589.407129774723
 20
862.3788794610113
 30
0.0
  0
VERTEX
  5
498
  8
LAYER_1
 10
3589.407129774723
 20
856.0043794093325
 30
0.0
  0
VERTEX
  5
499
  8
LAYER_1
 10
3586.167629748459
 20
856.0043794092861
 30
0.0
  0
VERTEX
  5
49A
  8
LAYER_1
 10
3586.167629748459
 20
753.8033785807783
 30
0.0
  0
VERTEX
  5
49B
  8
LAYER_1
 10
3589.407129774723
 20
753.8033785807683
 30
0.0
  0
VERTEX
  5
49C
  8
LAYER_1
 10
3589.407129774723
 20
747.4288785290886
 30
0.0
  0
VERTEX
  5
49D
  8
LAYER_1
 10
3586.167629748459
 20
747.4288785290886
 30
0.0
  0
VERTEX
  5
49E
  8
LAYER_1
 10
3567.357629595963
 20
747.4288785290886
 30
0.0
  0
VERTEX
  5
49F
  8
LAYER_1
 10
3567.357629595963
 20
632.4788775971659
 30
0.0
  0
VERTEX
  5
4A0
  8
LAYER_1
 10
3567.357629595963
 20
619.9388774955017
 30
0.0
  0
SEQEND
  5
56B
  8
LAYER_1
  0
POLYLINE
  5
F6
  8
LAYER_1
 66
     1
 10
0.0
 20
0.0
 30
0.0
  0
VERTEX
  5
4A1
  8
LAYER_1
 10
4569.570403971126
 20
1937.266469635574
 30
0.0
  0
VERTEX
  5
4A2
  8
LAYER_1
 10
4641.414154553578
 20
1937.266469635574
 30
0.0
  0
SEQEND
  5
56C
  8
LAYER_1
  0
POLYLINE
  5
F7
  8
LAYER_1
 66
     1
 10
0.0
 20
0.0
 30
0.0
  0
VERTEX
  5
4A3
  8
LAYER_1
 10
4354.039152223771
 20
1937.266469635574
 30
0.0
  0
VERTEX
  5
4A4
  8
LAYER_1
 10
4282.19540164132
 20
1937.266469635574
 30
0.0
  0
SEQEND
  5
56D
  8
LAYER_1
  0
POLYLINE
  5
F8
  8
LAYER_1
 66
     1
 10
0.0
 20
0.0
 30
0.0
  0
VERTEX
  5
4A5
  8
LAYER_1
 10
4641.414154553578
 20
1224.576463857652
 30
0.0
  0
VERTEX
  5
4A6
  8
LAYER_1
 10
4569.570403971126
 20
1224.576463857652
 30
0.0
  0
SEQEND
  5
56E
  8
LAYER_1
  0
POLYLINE
  5
F9
  8
LAYER_1
 66
     1
 10
0.0
 20
0.0
 30
0.0
  0
VERTEX
  5
4A7
  8
LAYER_1
 10
4354.039152223771
 20
1224.576463857652
 30
0.0
  0
VERTEX
  5
4A8
  8
LAYER_1
 10
4282.19540164132
 20
1224.576463857652
 30
0.0
  0
SEQEND
  5
56F
  8
LAYER_1
  0
POLYLINE
  5
FA
  8
LAYER_1
 66
     1
 10
0.0
 20
0.0
 30
0.0
  0
VERTEX
  5
4A9
  8
LAYER_1
 10
4721.037638949078
 20
499.7388812231928
 30
0.0
  0
VERTEX
  5
4AA
  8
LAYER_1
 10
4739.847639101575
 20
499.7388812231928
 30
0.0
  0
VERTEX
  5
4AB
  8
LAYER_1
 10
4739.847639101575
 20
614.6888821551155
 30
0.0
  0
VERTEX
  5
4AC
  8
LAYER_1
 10
4721.037638949078
 20
614.6888821551155
 30
0.0
  0
SEQEND
  5
570
  8
LAYER_1
  0
POLYLINE
  5
FB
  8
LAYER_1
 66
     1
 10
0.0
 20
0.0
 30
0.0
  0
VERTEX
  5
4AD
  8
LAYER_1
 10
3586.167629748459
 20
614.6888821551155
 30
0.0
  0
VERTEX
  5
4AE
  8
LAYER_1
 10
3567.357629595963
 20
614.6888821551155
 30
0.0
  0
VERTEX
  5
4AF
  8
LAYER_1
 10
3567.357629595963
 20
499.7388812231928
 30
0.0
  0
VERTEX
  5
4B0
  8
LAYER_1
 10
3586.167629748459
 20
499.7388812231928
 30
0.0
  0
SEQEND
  5
571
  8
LAYER_1
  0
POLYLINE
  5
FC
  8
LAYER_1
 66
     1
 10
0.0
 20
0.0
 30
0.0
  0
VERTEX
  5
4B1
  8
LAYER_1
 10
3586.167629748459
 20
384.7888802912702
 30
0.0
  0
VERTEX
  5
4B2
  8
LAYER_1
 10
3567.357629595963
 20
384.7888802912702
 30
0.0
  0
VERTEX
  5
4B3
  8
LAYER_1
 10
3567.357629595963
 20
269.8388793593473
 30
0.0
  0
VERTEX
  5
4B4
  8
LAYER_1
 10
3586.167629748459
 20
269.8388793593473
 30
0.0
  0
SEQEND
  5
572
  8
LAYER_1
  0
POLYLINE
  5
FD
  8
LAYER_1
 66
     1
 10
0.0
 20
0.0
 30
0.0
  0
VERTEX
  5
4B5
  8
LAYER_1
 10
4744.616413428124
 20
614.6888821551155
 30
0.0
  0
VERTEX
  5
4B6
  8
LAYER_1
 10
3562.588855269414
 20
614.6888821551155
 30
0.0
  0
SEQEND
  5
573
  8
LAYER_1
  0
POLYLINE
  5
FE
  8
LAYER_1
 66
     1
 10
0.0
 20
0.0
 30
0.0
  0
VERTEX
  5
4B7
  8
LAYER_1
 10
4739.847639101575
 20
614.6888821551155
 30
0.0
  0
VERTEX
  5
4B8
  8
LAYER_1
 10
4739.847639101575
 20
499.7388812231928
 30
0.0
  0
VERTEX
  5
4B9
  8
LAYER_1
 10
4721.037638949078
 20
499.7388812231928
 30
0.0
  0
VERTEX
  5
4BA
  8
LAYER_1
 10
4717.798138922815
 20
499.7388812231928
 30
0.0
  0
VERTEX
  5
4BB
  8
LAYER_1
 10
4717.798138922815
 20
493.3643811715141
 30
0.0
  0
VERTEX
  5
4BC
  8
LAYER_1
 10
4721.037638949078
 20
493.3643811715041
 30
0.0
  0
VERTEX
  5
4BD
  8
LAYER_1
 10
4721.037638949078
 20
391.1633803429371
 30
0.0
  0
VERTEX
  5
4BE
  8
LAYER_1
 10
4717.798138922815
 20
391.1633803429489
 30
0.0
  0
VERTEX
  5
4BF
  8
LAYER_1
 10
4717.798138922815
 20
384.7888802912702
 30
0.0
  0
VERTEX
  5
4C0
  8
LAYER_1
 10
4739.847639101575
 20
384.7888802912702
 30
0.0
  0
VERTEX
  5
4C1
  8
LAYER_1
 10
4739.847639101575
 20
269.8388793593473
 30
0.0
  0
VERTEX
  5
4C2
  8
LAYER_1
 10
4721.037638949078
 20
269.8388793593473
 30
0.0
  0
VERTEX
  5
4C3
  8
LAYER_1
 10
4717.798138922815
 20
269.8388793593473
 30
0.0
  0
VERTEX
  5
4C4
  8
LAYER_1
 10
4717.798138922815
 20
263.4643793076681
 30
0.0
  0
VERTEX
  5
4C5
  8
LAYER_1
 10
4721.037638949078
 20
263.4643793076719
 30
0.0
  0
VERTEX
  5
4C6
  8
LAYER_1
 10
4721.037638949078
 20
161.2633784791052
 30
0.0
  0
VERTEX
  5
4C7
  8
LAYER_1
 10
4717.798138922815
 20
161.2633784791038
 30
0.0
  0
VERTEX
  5
4C8
  8
LAYER_1
 10
4717.798138922815
 20
154.8888784274246
 30
0.0
  0
VERTEX
  5
4C9
  8
LAYER_1
 10
4721.037638949078
 20
154.8888784274246
 30
0.0
  0
VERTEX
  5
4CA
  8
LAYER_1
 10
4739.847639101575
 20
154.8888784274246
 30
0.0
  0
VERTEX
  5
4CB
  8
LAYER_1
 10
4739.847639101575
 20
39.93887749550174
 30
0.0
  0
VERTEX
  5
4CC
  8
LAYER_1
 10
3567.357629595963
 20
39.93887749550174
 30
0.0
  0
VERTEX
  5
4CD
  8
LAYER_1
 10
3567.357629595963
 20
154.8888784274246
 30
0.0
  0
VERTEX
  5
4CE
  8
LAYER_1
 10
3586.167629748459
 20
154.8888784274246
 30
0.0
  0
VERTEX
  5
4CF
  8
LAYER_1
 10
3589.407129774723
 20
154.8888784274246
 30
0.0
  0
VERTEX
  5
4D0
  8
LAYER_1
 10
3589.407129774723
 20
161.2633784791038
 30
0.0
  0
VERTEX
  5
4D1
  8
LAYER_1
 10
3586.167629748459
 20
161.2633784791248
 30
0.0
  0
VERTEX
  5
4D2
  8
LAYER_1
 10
3586.167629748459
 20
263.4643793076326
 30
0.0
  0
VERTEX
  5
4D3
  8
LAYER_1
 10
3589.407129774723
 20
263.4643793076681
 30
0.0
  0
VERTEX
  5
4D4
  8
LAYER_1
 10
3589.407129774723
 20
269.8388793593473
 30
0.0
  0
VERTEX
  5
4D5
  8
LAYER_1
 10
3586.167629748459
 20
269.8388793593473
 30
0.0
  0
VERTEX
  5
4D6
  8
LAYER_1
 10
3567.357629595963
 20
269.8388793593473
 30
0.0
  0
VERTEX
  5
4D7
  8
LAYER_1
 10
3567.357629595963
 20
384.7888802912702
 30
0.0
  0
VERTEX
  5
4D8
  8
LAYER_1
 10
3586.167629748459
 20
384.7888802912702
 30
0.0
  0
VERTEX
  5
4D9
  8
LAYER_1
 10
3589.407129774723
 20
384.7888802912702
 30
0.0
  0
VERTEX
  5
4DA
  8
LAYER_1
 10
3589.407129774723
 20
391.1633803429489
 30
0.0
  0
VERTEX
  5
4DB
  8
LAYER_1
 10
3586.167629748459
 20
391.1633803429567
 30
0.0
  0
VERTEX
  5
4DC
  8
LAYER_1
 10
3586.167629748459
 20
493.3643811715436
 30
0.0
  0
VERTEX
  5
4DD
  8
LAYER_1
 10
3589.407129774723
 20
493.3643811715141
 30
0.0
  0
VERTEX
  5
4DE
  8
LAYER_1
 10
3589.407129774723
 20
499.7388812231928
 30
0.0
  0
VERTEX
  5
4DF
  8
LAYER_1
 10
3586.167629748459
 20
499.7388812231928
 30
0.0
  0
VERTEX
  5
4E0
  8
LAYER_1
 10
3567.357629595963
 20
499.7388812231928
 30
0.0
  0
VERTEX
  5
4E1
  8
LAYER_1
 10
3567.357629595963
 20
614.6888821551155
 30
0.0
  0
SEQEND
  5
574
  8
LAYER_1
  0
POLYLINE
  5
FF
  8
LAYER_1
 66
     1
 10
0.0
 20
0.0
 30
0.0
  0
VERTEX
  5
4E2
  8
LAYER_1
 10
3562.588855269414
 20
619.9388774955017
 30
0.0
  0
VERTEX
  5
4E3
  8
LAYER_1
 10
4744.616413428124
 20
619.9388774955017
 30
0.0
  0
SEQEND
  5
575
  8
LAYER_1
  0
ENDSEC
  0
EOF
